  0
SECTION
  2
HEADER
  9
$ACADVER
  1
AC1024
  9
$ACADMAINTVER
 70
     6
  9
$DWGCODEPAGE
  3
UNDEFINED
  9
$INSBASE
 10
0.0
 20
0.0
 30
0.0
  9
$EXTMIN
 10
1.000000000000000E+20
 20
1.000000000000000E+20
 30
1.000000000000000E+20
  9
$EXTMAX
 10
-1.000000000000000E+20
 20
-1.000000000000000E+20
 30
-1.000000000000000E+20
  9
$LIMMIN
 10
0.0
 20
0.0
  9
$LIMMAX
 10
12.0
 20
9.0
  9
$ORTHOMODE
 70
     0
  9
$REGENMODE
 70
     1
  9
$FILLMODE
 70
     1
  9
$QTEXTMODE
 70
     0
  9
$MIRRTEXT
 70
     1
  9
$LTSCALE
 40
1.0
  9
$ATTMODE
 70
     1
  9
$TEXTSIZE
 40
0.2
  9
$TRACEWID
 40
0.05
  9
$TEXTSTYLE
  7
Standard
  9
$CLAYER
  8
0
  9
$CELTYPE
  6
ByLayer
  9
$CECOLOR
 62
   256
  9
$CELTSCALE
 40
1.0
  9
$DISPSILH
 70
     0
  9
$DIMSCALE
 40
1.0
  9
$DIMASZ
 40
0.18
  9
$DIMEXO
 40
0.0625
  9
$DIMDLI
 40
0.38
  9
$DIMRND
 40
0.0
  9
$DIMDLE
 40
0.0
  9
$DIMEXE
 40
0.18
  9
$DIMTP
 40
0.0
  9
$DIMTM
 40
0.0
  9
$DIMTXT
 40
0.18
  9
$DIMCEN
 40
0.09
  9
$DIMTSZ
 40
0.0
  9
$DIMTOL
 70
     0
  9
$DIMLIM
 70
     0
  9
$DIMTIH
 70
     1
  9
$DIMTOH
 70
     1
  9
$DIMSE1
 70
     0
  9
$DIMSE2
 70
     0
  9
$DIMTAD
 70
     0
  9
$DIMZIN
 70
     0
  9
$DIMBLK
  1

  9
$DIMASO
 70
     1
  9
$DIMSHO
 70
     1
  9
$DIMPOST
  1

  9
$DIMAPOST
  1

  9
$DIMALT
 70
     0
  9
$DIMALTD
 70
     2
  9
$DIMALTF
 40
25.4
  9
$DIMLFAC
 40
1.0
  9
$DIMTOFL
 70
     0
  9
$DIMTVP
 40
0.0
  9
$DIMTIX
 70
     0
  9
$DIMSOXD
 70
     0
  9
$DIMSAH
 70
     0
  9
$DIMBLK1
  1

  9
$DIMBLK2
  1

  9
$DIMSTYLE
  2
Standard
  9
$DIMCLRD
 70
     0
  9
$DIMCLRE
 70
     0
  9
$DIMCLRT
 70
     0
  9
$DIMTFAC
 40
1.0
  9
$DIMGAP
 40
0.09
  9
$DIMJUST
 70
     0
  9
$DIMSD1
 70
     0
  9
$DIMSD2
 70
     0
  9
$DIMTOLJ
 70
     1
  9
$DIMTZIN
 70
     0
  9
$DIMALTZ
 70
     0
  9
$DIMALTTZ
 70
     0
  9
$DIMUPT
 70
     0
  9
$DIMDEC
 70
     4
  9
$DIMTDEC
 70
     4
  9
$DIMALTU
 70
     2
  9
$DIMALTTD
 70
     2
  9
$DIMTXSTY
  7
Standard
  9
$DIMAUNIT
 70
     0
  9
$DIMADEC
 70
     0
  9
$DIMALTRND
 40
0.0
  9
$DIMAZIN
 70
     0
  9
$DIMDSEP
 70
    46
  9
$DIMATFIT
 70
     3
  9
$DIMFRAC
 70
     0
  9
$DIMLDRBLK
  1

  9
$DIMLUNIT
 70
     2
  9
$DIMLWD
 70
    -2
  9
$DIMLWE
 70
    -2
  9
$DIMTMOVE
 70
     0
  9
$DIMFXL
 40
1.0
  9
$DIMFXLON
 70
     0
  9
$DIMJOGANG
 40
0.7853981633974483
  9
$DIMTFILL
 70
     0
  9
$DIMTFILLCLR
 70
     0
  9
$DIMARCSYM
 70
     0
  9
$DIMLTYPE
  6

  9
$DIMLTEX1
  6

  9
$DIMLTEX2
  6

  9
$DIMTXTDIRECTION
 70
     0
  9
$LUNITS
 70
     2
  9
$LUPREC
 70
     4
  9
$SKETCHINC
 40
0.1
  9
$FILLETRAD
 40
0.5
  9
$AUNITS
 70
     0
  9
$AUPREC
 70
     0
  9
$MENU
  1
.
  9
$ELEVATION
 40
0.0
  9
$PELEVATION
 40
0.0
  9
$THICKNESS
 40
0.0
  9
$LIMCHECK
 70
     0
  9
$CHAMFERA
 40
0.5
  9
$CHAMFERB
 40
0.5
  9
$CHAMFERC
 40
1.0
  9
$CHAMFERD
 40
0.0
  9
$SKPOLY
 70
     0
  9
$TDCREATE
 40
2457666.506805544
  9
$TDUCREATE
 40
2457666.465138889
  9
$TDUPDATE
 40
2457666.506805544
  9
$TDUUPDATE
 40
2457666.465138889
  9
$TDINDWG
 40
0.0000000116
  9
$TDUSRTIMER
 40
0.0000000116
  9
$USRTIMER
 70
     1
  9
$ANGBASE
 50
0.0
  9
$ANGDIR
 70
     0
  9
$PDMODE
 70
     0
  9
$PDSIZE
 40
0.0
  9
$PLINEWID
 40
0.0
  9
$SPLFRAME
 70
     0
  9
$SPLINETYPE
 70
     6
  9
$SPLINESEGS
 70
     8
  9
$HANDSEED
  5
389
  9
$SURFTAB1
 70
     6
  9
$SURFTAB2
 70
     6
  9
$SURFTYPE
 70
     6
  9
$SURFU
 70
     6
  9
$SURFV
 70
     6
  9
$UCSBASE
  2

  9
$UCSNAME
  2

  9
$UCSORG
 10
0.0
 20
0.0
 30
0.0
  9
$UCSXDIR
 10
1.0
 20
0.0
 30
0.0
  9
$UCSYDIR
 10
0.0
 20
1.0
 30
0.0
  9
$UCSORTHOREF
  2

  9
$UCSORTHOVIEW
 70
     0
  9
$UCSORGTOP
 10
0.0
 20
0.0
 30
0.0
  9
$UCSORGBOTTOM
 10
0.0
 20
0.0
 30
0.0
  9
$UCSORGLEFT
 10
0.0
 20
0.0
 30
0.0
  9
$UCSORGRIGHT
 10
0.0
 20
0.0
 30
0.0
  9
$UCSORGFRONT
 10
0.0
 20
0.0
 30
0.0
  9
$UCSORGBACK
 10
0.0
 20
0.0
 30
0.0
  9
$PUCSBASE
  2

  9
$PUCSNAME
  2

  9
$PUCSORG
 10
0.0
 20
0.0
 30
0.0
  9
$PUCSXDIR
 10
1.0
 20
0.0
 30
0.0
  9
$PUCSYDIR
 10
0.0
 20
1.0
 30
0.0
  9
$PUCSORTHOREF
  2

  9
$PUCSORTHOVIEW
 70
     0
  9
$PUCSORGTOP
 10
0.0
 20
0.0
 30
0.0
  9
$PUCSORGBOTTOM
 10
0.0
 20
0.0
 30
0.0
  9
$PUCSORGLEFT
 10
0.0
 20
0.0
 30
0.0
  9
$PUCSORGRIGHT
 10
0.0
 20
0.0
 30
0.0
  9
$PUCSORGFRONT
 10
0.0
 20
0.0
 30
0.0
  9
$PUCSORGBACK
 10
0.0
 20
0.0
 30
0.0
  9
$USERI1
 70
     0
  9
$USERI2
 70
     0
  9
$USERI3
 70
     0
  9
$USERI4
 70
     0
  9
$USERI5
 70
     0
  9
$USERR1
 40
0.0
  9
$USERR2
 40
0.0
  9
$USERR3
 40
0.0
  9
$USERR4
 40
0.0
  9
$USERR5
 40
0.0
  9
$WORLDVIEW
 70
     1
  9
$SHADEDGE
 70
     3
  9
$SHADEDIF
 70
    70
  9
$TILEMODE
 70
     1
  9
$MAXACTVP
 70
    64
  9
$PINSBASE
 10
0.0
 20
0.0
 30
0.0
  9
$PLIMCHECK
 70
     0
  9
$PEXTMIN
 10
1.000000000000000E+20
 20
1.000000000000000E+20
 30
1.000000000000000E+20
  9
$PEXTMAX
 10
-1.000000000000000E+20
 20
-1.000000000000000E+20
 30
-1.000000000000000E+20
  9
$PLIMMIN
 10
0.0
 20
0.0
  9
$PLIMMAX
 10
12.0
 20
9.0
  9
$UNITMODE
 70
     0
  9
$VISRETAIN
 70
     1
  9
$PLINEGEN
 70
     0
  9
$PSLTSCALE
 70
     1
  9
$TREEDEPTH
 70
  3020
  9
$CMLSTYLE
  2
Standard
  9
$CMLJUST
 70
     0
  9
$CMLSCALE
 40
1.0
  9
$PROXYGRAPHICS
 70
     1
  9
$MEASUREMENT
 70
     0
  9
$CELWEIGHT
370
    -1
  9
$ENDCAPS
280
     0
  9
$JOINSTYLE
280
     0
  9
$LWDISPLAY
290
     1
  9
$INSUNITS
 70
     1
  9
$HYPERLINKBASE
  1

  9
$STYLESHEET
  1

  9
$XEDIT
290
     1
  9
$CEPSNTYPE
380
     0
  9
$PSTYLEMODE
290
     1
  9
$FINGERPRINTGUID
  2
{F3099039-904B-068A-9DB9-DDCFE769912B}
  9
$VERSIONGUID
  2
{FAEB1C32-E019-11D5-929B-00C0DF256EC4}
  9
$EXTNAMES
290
     1
  9
$PSVPSCALE
 40
0.0
  9
$OLESTARTUP
290
     0
  9
$SORTENTS
280
   127
  9
$INDEXCTL
280
     0
  9
$HIDETEXT
280
     1
  9
$XCLIPFRAME
280
     2
  9
$HALOGAP
280
     0
  9
$OBSCOLOR
 70
   257
  9
$OBSLTYPE
280
     0
  9
$INTERSECTIONDISPLAY
280
     0
  9
$INTERSECTIONCOLOR
 70
   257
  9
$DIMASSOC
280
     2
  9
$PROJECTNAME
  1

  9
$CAMERADISPLAY
290
     0
  9
$LENSLENGTH
 40
50.0
  9
$CAMERAHEIGHT
 40
0.0
  9
$STEPSPERSEC
 40
2.0
  9
$STEPSIZE
 40
6.0
  9
$3DDWFPREC
 40
2.0
  9
$PSOLWIDTH
 40
0.25
  9
$PSOLHEIGHT
 40
4.0
  9
$LOFTANG1
 40
1.570796326794897
  9
$LOFTANG2
 40
1.570796326794897
  9
$LOFTMAG1
 40
0.0
  9
$LOFTMAG2
 40
0.0
  9
$LOFTPARAM
 70
     7
  9
$LOFTNORMALS
280
     1
  9
$LATITUDE
 40
37.795
  9
$LONGITUDE
 40
-122.394
  9
$NORTHDIRECTION
 40
0.0
  9
$TIMEZONE
 70
 -8000
  9
$LIGHTGLYPHDISPLAY
280
     1
  9
$TILEMODELIGHTSYNCH
280
     1
  9
$CMATERIAL
347
3C
  9
$SOLIDHIST
280
     1
  9
$SHOWHIST
280
     1
  9
$DWFFRAME
280
     2
  9
$DGNFRAME
280
     2
  9
$REALWORLDSCALE
290
     1
  9
$INTERFERECOLOR
 62
   256
  9
$CSHADOW
280
     0
  9
$SHADOWPLANELOCATION
 40
0.0
  0
ENDSEC
  0
SECTION
  2
CLASSES
  0
CLASS
  1
ACDBDICTIONARYWDFLT
  2
AcDbDictionaryWithDefault
  3
ObjectDBX Classes
 90
        0
 91
        4
280
     0
281
     0
  0
CLASS
  1
VISUALSTYLE
  2
AcDbVisualStyle
  3
ObjectDBX Classes
 90
     4095
 91
        4
280
     0
281
     0
  0
CLASS
  1
MATERIAL
  2
AcDbMaterial
  3
ObjectDBX Classes
 90
     1153
 91
        4
280
     0
281
     0
  0
CLASS
  1
SUN
  2
AcDbSun
  3
SCENEOE
 90
     1024
 91
        4
280
     0
281
     0
  0
ENDSEC
  0
SECTION
  2
TABLES
  0
TABLE
  2
VPORT
  5
8
330
0
100
AcDbSymbolTable
 70
     1
  0
VPORT
  5
29
330
8
100
AcDbSymbolTableRecord
100
AcDbViewportTableRecord
  2
*Active
 70
     0
 10
0.0
 20
0.0
 11
1.0
 21
1.0
 12
0.0
 22
0.0
 13
0.0
 23
0.0
 14
0.5
 24
0.5
 15
0.5
 25
0.5
 16
0.0
 26
0.0
 36
1.0
 17
64.9999916244691
 27
-129.9999869119443
 37
0.0
 40
259.9999738238887
 41
0.6153841107470996
 42
50.0
 43
0.0
 44
0.0
 50
0.0
 51
0.0
 71
     0
 72
   100
 73
     1
 74
     3
 75
     0
 76
     0
 77
     0
 78
     0
281
     0
 65
     1
110
0.0
120
0.0
130
0.0
111
1.0
121
0.0
131
0.0
112
0.0
122
1.0
132
0.0
 79
     0
146
0.0
 60
     3
 61
     5
292
     1
282
     1
141
0.0
142
0.0
 63
   250
361
3F
  0
ENDTAB
  0
TABLE
  2
LTYPE
  5
5
330
0
100
AcDbSymbolTable
 70
     1
  0
LTYPE
  5
14
330
5
100
AcDbSymbolTableRecord
100
AcDbLinetypeTableRecord
  2
ByBlock
 70
     0
  3

 72
    65
 73
     0
 40
0.0
  0
LTYPE
  5
15
330
5
100
AcDbSymbolTableRecord
100
AcDbLinetypeTableRecord
  2
ByLayer
 70
     0
  3

 72
    65
 73
     0
 40
0.0
  0
LTYPE
  5
16
330
5
100
AcDbSymbolTableRecord
100
AcDbLinetypeTableRecord
  2
Continuous
 70
     0
  3
Solid line
 72
    65
 73
     0
 40
0.0
  0
ENDTAB
  0
TABLE
  2
LAYER
  5
2
330
0
100
AcDbSymbolTable
 70
     3
  0
LAYER
  5
10
330
2
100
AcDbSymbolTableRecord
100
AcDbLayerTableRecord
  2
0
 70
     0
 62
     7
  6
Continuous
370
    -3
390
F
347
3E
  0
LAYER
  5
40
330
2
100
AcDbSymbolTableRecord
100
AcDbLayerTableRecord
  2
Livello 1
 70
     0
 62
     7
  6
Continuous
370
    -3
390
F
347
3E
  0
LAYER
  5
33F
330
2
100
AcDbSymbolTableRecord
100
AcDbLayerTableRecord
  2
montaggio
 70
     0
 62
     7
  6
Continuous
370
    -3
390
F
347
3E
  0
ENDTAB
  0
TABLE
  2
STYLE
  5
3
330
0
100
AcDbSymbolTable
 70
     1
  0
STYLE
  5
11
330
3
100
AcDbSymbolTableRecord
100
AcDbTextStyleTableRecord
  2
Standard
 70
     0
 40
0.0
 41
1.0
 50
0.0
 71
     0
 42
0.2
  3
txt
  4

  0
ENDTAB
  0
TABLE
  2
VIEW
  5
6
330
0
100
AcDbSymbolTable
 70
     0
  0
ENDTAB
  0
TABLE
  2
UCS
  5
7
330
0
100
AcDbSymbolTable
 70
     0
  0
ENDTAB
  0
TABLE
  2
APPID
  5
9
330
0
100
AcDbSymbolTable
 70
     1
  0
APPID
  5
12
330
9
100
AcDbSymbolTableRecord
100
AcDbRegAppTableRecord
  2
ACAD
 70
     0
  0
ENDTAB
  0
TABLE
  2
DIMSTYLE
  5
A
330
0
100
AcDbSymbolTable
 70
     1
100
AcDbDimStyleTable
  0
DIMSTYLE
105
27
330
A
100
AcDbSymbolTableRecord
100
AcDbDimStyleTableRecord
  2
Standard
 70
     0
178
     0
340
11
  0
ENDTAB
  0
TABLE
  2
BLOCK_RECORD
  5
1
330
0
100
AcDbSymbolTable
 70
     5
  0
BLOCK_RECORD
  5
1F
330
1
100
AcDbSymbolTableRecord
100
AcDbBlockTableRecord
  2
*Model_Space
340
22
 70
     0
280
     1
281
     0
  0
BLOCK_RECORD
  5
1B
330
1
100
AcDbSymbolTableRecord
100
AcDbBlockTableRecord
  2
*Paper_Space
340
1E
 70
     0
280
     1
281
     0
  0
BLOCK_RECORD
  5
23
330
1
100
AcDbSymbolTableRecord
100
AcDbBlockTableRecord
  2
*Paper_Space0
340
26
 70
     0
280
     1
281
     0
  0
BLOCK_RECORD
  5
340
330
1
100
AcDbSymbolTableRecord
100
AcDbBlockTableRecord
  2
block 2
340
0
102
{BLKREFS
331
341
102
}
 70
     0
280
     1
281
     0
  0
BLOCK_RECORD
  5
34C
330
1
100
AcDbSymbolTableRecord
100
AcDbBlockTableRecord
  2
block 3
340
0
102
{BLKREFS
331
34D
102
}
 70
     0
280
     1
281
     0
  0
BLOCK_RECORD
  5
36D
330
1
100
AcDbSymbolTableRecord
100
AcDbBlockTableRecord
  2
block 4
340
0
102
{BLKREFS
331
36E
102
}
 70
     0
280
     1
281
     0
  0
BLOCK_RECORD
  5
379
330
1
100
AcDbSymbolTableRecord
100
AcDbBlockTableRecord
  2
block 5
340
0
102
{BLKREFS
331
37A
102
}
 70
     0
280
     1
281
     0
  0
ENDTAB
  0
ENDSEC
  0
SECTION
  2
BLOCKS
  0
BLOCK
  5
20
330
1F
100
AcDbEntity
  8
0
100
AcDbBlockBegin
  2
*Model_Space
 70
     0
 10
0.0
 20
0.0
 30
0.0
  3
*Model_Space
  1

  0
ENDBLK
  5
21
330
1F
100
AcDbEntity
  8
0
100
AcDbBlockEnd
  0
BLOCK
  5
1C
330
1B
100
AcDbEntity
 67
     1
  8
0
100
AcDbBlockBegin
  2
*Paper_Space
 70
     0
 10
0.0
 20
0.0
 30
0.0
  3
*Paper_Space
  1

  0
ENDBLK
  5
1D
330
1B
100
AcDbEntity
 67
     1
  8
0
100
AcDbBlockEnd
  0
BLOCK
  5
24
330
23
100
AcDbEntity
  8
0
100
AcDbBlockBegin
  2
*Paper_Space0
 70
     0
 10
0.0
 20
0.0
 30
0.0
  3
*Paper_Space0
  1

  0
ENDBLK
  5
25
330
23
100
AcDbEntity
  8
0
100
AcDbBlockEnd
  0
BLOCK
  5
342
330
340
100
AcDbEntity
  8
0
100
AcDbBlockBegin
  2
block 2
 70
     0
 10
0.0
 20
0.0
 30
0.0
  3
block 2
  1

  0
POLYLINE
  5
344
330
340
100
AcDbEntity
  8
montaggio
 62
     7
420
 16777215
370
    35
100
AcDb2dPolyline
 66
     1
 10
0.0
 20
0.0
 30
0.0
  0
VERTEX
  5
345
330
344
100
AcDbEntity
  8
montaggio
 62
     7
420
 16777215
370
    35
100
AcDbVertex
100
AcDb2dVertex
 10
54.99992387461282
 20
-177.0000410668614
 30
0.0
  0
VERTEX
  5
346
330
344
100
AcDbEntity
  8
montaggio
 62
     7
420
 16777215
370
    35
100
AcDbVertex
100
AcDb2dVertex
 10
75.02747058588976
 20
-177.0000410668614
 30
0.0
  0
SEQEND
  5
347
330
344
100
AcDbEntity
  8
montaggio
 62
     7
420
 16777215
370
    35
  0
POLYLINE
  5
348
330
340
100
AcDbEntity
  8
montaggio
 62
     7
420
 16777215
370
    18
100
AcDb2dPolyline
 66
     1
 10
0.0
 20
0.0
 30
0.0
  0
VERTEX
  5
349
330
348
100
AcDbEntity
  8
montaggio
 62
     7
420
 16777215
370
    18
100
AcDbVertex
100
AcDb2dVertex
 10
64.99948028616954
 20
-181.0001530103054
 30
0.0
  0
VERTEX
  5
34A
330
348
100
AcDbEntity
  8
montaggio
 62
     7
420
 16777215
370
    18
100
AcDbVertex
100
AcDb2dVertex
 10
64.99948028616954
 20
-177.0000410668614
 30
0.0
  0
SEQEND
  5
34B
330
348
100
AcDbEntity
  8
montaggio
 62
     7
420
 16777215
370
    18
  0
INSERT
  5
34D
330
340
100
AcDbEntity
  8
montaggio
100
AcDbBlockReference
  2
block 3
 10
0.0
 20
0.0
 30
0.0
  0
MTEXT
  5
358
330
340
100
AcDbEntity
  8
montaggio
 62
     7
420
 16777215
100
AcDbMText
 10
62.35123289456845
 20
-183.7927435521421
 30
0.0
 40
2.247899999438025
 41
0.0
 46
0.0
 71
     7
 72
     1
  1
\fHelvetica|b0|i0|c0|p34;\W1;830
 73
     1
 44
1.0
  0
ENDBLK
  5
343
330
340
100
AcDbEntity
  8
0
100
AcDbBlockEnd
  0
BLOCK
  5
34E
330
34C
100
AcDbEntity
  8
0
100
AcDbBlockBegin
  2
block 3
 70
     0
 10
0.0
 20
0.0
 30
0.0
  3
block 3
  1

  0
POLYLINE
  5
350
330
34C
100
AcDbEntity
  8
montaggio
 62
     7
420
 16777215
370
    18
100
AcDb2dPolyline
 66
     1
 10
0.0
 20
0.0
 30
0.0
  0
VERTEX
  5
351
330
350
100
AcDbEntity
  8
montaggio
 62
     7
420
 16777215
370
    18
100
AcDbVertex
100
AcDb2dVertex
 10
63.80282281669915
 20
-178.9999382885836
 30
0.0
  0
VERTEX
  5
352
330
350
100
AcDbEntity
  8
montaggio
 62
     7
420
 16777215
370
    18
100
AcDbVertex
100
AcDb2dVertex
 10
64.99948028616954
 20
-177.0000410668614
 30
0.0
  0
SEQEND
  5
353
330
350
100
AcDbEntity
  8
montaggio
 62
     7
420
 16777215
370
    18
  0
POLYLINE
  5
354
330
34C
100
AcDbEntity
  8
montaggio
 62
     7
420
 16777215
370
    18
100
AcDb2dPolyline
 66
     1
 10
0.0
 20
0.0
 30
0.0
  0
VERTEX
  5
355
330
354
100
AcDbEntity
  8
montaggio
 62
     7
420
 16777215
370
    18
100
AcDbVertex
100
AcDb2dVertex
 10
66.19649053340905
 20
-178.9999382885836
 30
0.0
  0
VERTEX
  5
356
330
354
100
AcDbEntity
  8
montaggio
 62
     7
420
 16777215
370
    18
100
AcDbVertex
100
AcDb2dVertex
 10
64.99983306393833
 20
-177.0000410668614
 30
0.0
  0
SEQEND
  5
357
330
354
100
AcDbEntity
  8
montaggio
 62
     7
420
 16777215
370
    18
  0
ENDBLK
  5
34F
330
34C
100
AcDbEntity
  8
0
100
AcDbBlockEnd
  0
BLOCK
  5
36F
330
36D
100
AcDbEntity
  8
0
100
AcDbBlockBegin
  2
block 4
 70
     0
 10
0.0
 20
0.0
 30
0.0
  3
block 4
  1

  0
POLYLINE
  5
371
330
36D
100
AcDbEntity
  8
montaggio
 62
     7
420
 16777215
370
    18
100
AcDb2dPolyline
 66
     1
 10
0.0
 20
0.0
 30
0.0
  0
VERTEX
  5
372
330
371
100
AcDbEntity
  8
montaggio
 62
     7
420
 16777215
370
    18
100
AcDbVertex
100
AcDb2dVertex
 10
81.30285792579129
 20
-211.9994771692224
 30
0.0
  0
VERTEX
  5
373
330
371
100
AcDbEntity
  8
montaggio
 62
     7
420
 16777215
370
    18
100
AcDbVertex
100
AcDb2dVertex
 10
82.49951539526201
 20
-209.9995799475002
 30
0.0
  0
SEQEND
  5
374
330
371
100
AcDbEntity
  8
montaggio
 62
     7
420
 16777215
370
    18
  0
POLYLINE
  5
375
330
36D
100
AcDbEntity
  8
montaggio
 62
     7
420
 16777215
370
    18
100
AcDb2dPolyline
 66
     1
 10
0.0
 20
0.0
 30
0.0
  0
VERTEX
  5
376
330
375
100
AcDbEntity
  8
montaggio
 62
     7
420
 16777215
370
    18
100
AcDbVertex
100
AcDb2dVertex
 10
83.69652775685365
 20
-211.9994771692224
 30
0.0
  0
VERTEX
  5
377
330
375
100
AcDbEntity
  8
montaggio
 62
     7
420
 16777215
370
    18
100
AcDbVertex
100
AcDb2dVertex
 10
82.49986817303079
 20
-209.9995799475002
 30
0.0
  0
SEQEND
  5
378
330
375
100
AcDbEntity
  8
montaggio
 62
     7
420
 16777215
370
    18
  0
ENDBLK
  5
370
330
36D
100
AcDbEntity
  8
0
100
AcDbBlockEnd
  0
BLOCK
  5
37B
330
379
100
AcDbEntity
  8
0
100
AcDbBlockBegin
  2
block 5
 70
     0
 10
0.0
 20
0.0
 30
0.0
  3
block 5
  1

  0
MTEXT
  5
37D
330
379
100
AcDbEntity
  8
montaggio
 62
     7
420
 16777215
100
AcDbMText
 10
79.85128443099204
 20
-216.791934494286
 30
0.0
 40
2.247899999438025
 41
0.0
 46
0.0
 71
     7
 72
     1
  1
\fHelvetica|b0|i0|c0|p34;\W1;500
 73
     1
 44
1.0
  0
ENDBLK
  5
37C
330
379
100
AcDbEntity
  8
0
100
AcDbBlockEnd
  0
ENDSEC
  0
SECTION
  2
ENTITIES
  0
POLYLINE
  5
41
330
1F
100
AcDbEntity
  8
Livello 1
 62
     7
420
 16777215
370
     9
100
AcDb2dPolyline
 66
     1
 10
0.0
 20
0.0
 30
0.0
  0
VERTEX
  5
42
330
41
100
AcDbEntity
  8
Livello 1
 62
     7
420
 16777215
370
     9
100
AcDbVertex
100
AcDb2dVertex
 10
77.33534274923326
 20
-95.96422992349336
 30
0.0
  0
VERTEX
  5
43
330
41
100
AcDbEntity
  8
Livello 1
 62
     7
420
 16777215
370
     9
100
AcDbVertex
100
AcDb2dVertex
 10
68.29124964663396
 20
-95.96422992349336
 30
0.0
  0
SEQEND
  5
44
330
41
100
AcDbEntity
  8
Livello 1
 62
     7
420
 16777215
370
     9
  0
POLYLINE
  5
45
330
1F
100
AcDbEntity
  8
Livello 1
 62
     7
420
 16777215
370
     9
100
AcDb2dPolyline
 66
     1
 10
0.0
 20
0.0
 30
0.0
  0
VERTEX
  5
46
330
45
100
AcDbEntity
  8
Livello 1
 62
     7
420
 16777215
370
     9
100
AcDbVertex
100
AcDb2dVertex
 10
61.25671982609977
 20
-95.96422992349336
 30
0.0
  0
VERTEX
  5
47
330
45
100
AcDbEntity
  8
Livello 1
 62
     7
420
 16777215
370
     9
100
AcDbVertex
100
AcDb2dVertex
 10
52.21266200127735
 20
-95.96422992349336
 30
0.0
  0
SEQEND
  5
48
330
45
100
AcDbEntity
  8
Livello 1
 62
     7
420
 16777215
370
     9
  0
SPLINE
  5
49
330
1F
100
AcDbEntity
  8
Livello 1
 62
     7
420
 16777215
370
     9
100
AcDbSpline
210
0.0
220
0.0
230
1.0
 70
     8
 71
     3
 72
    11
 73
     7
 74
     0
 42
0.0000000001
 43
0.0000000001
 12
1.0
 22
0.0
 32
0.0
 13
1.0
 23
0.0
 33
0.0
 40
0.0
 40
0.0
 40
0.0
 40
0.0
 40
1.0
 40
1.0
 40
1.0
 40
2.0
 40
2.0
 40
2.0
 40
2.0
 10
45.68024077904441
 20
-95.46261520139677
 30
0.0
 10
45.68024077904441
 20
-95.73961631243809
 30
0.0
 10
45.90520832185703
 20
-95.96422992349336
 30
0.0
 10
46.18305493288322
 20
-95.96422992349336
 30
0.0
 10
46.18305493288322
 20
-95.96422992349336
 30
0.0
 10
46.18305493288322
 20
-95.96422992349336
 30
0.0
 10
46.18305493288322
 20
-95.96422992349336
 30
0.0
  0
SPLINE
  5
4A
330
1F
100
AcDbEntity
  8
Livello 1
 62
     7
420
 16777215
370
     9
100
AcDbSpline
210
0.0
220
0.0
230
1.0
 70
     8
 71
     3
 72
     8
 73
     4
 74
     0
 42
0.0000000001
 43
0.0000000001
 12
1.0
 22
0.0
 32
0.0
 13
1.0
 23
0.0
 33
0.0
 40
0.0
 40
0.0
 40
0.0
 40
0.0
 40
1.0
 40
1.0
 40
1.0
 40
1.0
 10
48.17586127093139
 20
-82.23856775721835
 30
0.0
 10
47.61088887698618
 20
-82.1458930350189
 30
0.0
 10
47.19023546274346
 20
-82.1458930350189
 30
0.0
 10
47.23140462835981
 20
-82.23856775721835
 30
0.0
  0
SPLINE
  5
4B
330
1F
100
AcDbEntity
  8
Livello 1
 62
     7
420
 16777215
370
     9
100
AcDbSpline
210
0.0
220
0.0
230
1.0
 70
     8
 71
     3
 72
     8
 73
     4
 74
     0
 42
0.0000000001
 43
0.0000000001
 12
1.0
 22
0.0
 32
0.0
 13
1.0
 23
0.0
 33
0.0
 40
0.0
 40
0.0
 40
0.0
 40
0.0
 40
1.0
 40
1.0
 40
1.0
 40
1.0
 10
82.3164237332664
 20
-82.23856775721835
 30
0.0
 10
82.35741650999837
 20
-82.1458930350189
 30
0.0
 10
81.93676429850788
 20
-82.1458930350189
 30
0.0
 10
81.37179070181044
 20
-82.23856775721835
 30
0.0
  0
POLYLINE
  5
4C
330
1F
100
AcDbEntity
  8
Livello 1
 62
     7
420
 16777215
370
     9
100
AcDb2dPolyline
 66
     1
 10
0.0
 20
0.0
 30
0.0
  0
VERTEX
  5
4D
330
4C
100
AcDbEntity
  8
Livello 1
 62
     7
420
 16777215
370
     9
100
AcDbVertex
100
AcDb2dVertex
 10
48.17586127093139
 20
-81.84236303509493
 30
0.0
  0
VERTEX
  5
4E
330
4C
100
AcDbEntity
  8
Livello 1
 62
     7
420
 16777215
370
     9
100
AcDbVertex
100
AcDb2dVertex
 10
81.37179070181044
 20
-81.84236303509493
 30
0.0
  0
SEQEND
  5
4F
330
4C
100
AcDbEntity
  8
Livello 1
 62
     7
420
 16777215
370
     9
  0
POLYLINE
  5
50
330
1F
100
AcDbEntity
  8
Livello 1
 62
     7
420
 16777215
370
     9
100
AcDb2dPolyline
 66
     1
 10
0.0
 20
0.0
 30
0.0
  0
VERTEX
  5
51
330
50
100
AcDbEntity
  8
Livello 1
 62
     7
420
 16777215
370
     9
100
AcDbVertex
100
AcDb2dVertex
 10
81.37179070181044
 20
-81.84236303509493
 30
0.0
  0
VERTEX
  5
52
330
50
100
AcDbEntity
  8
Livello 1
 62
     7
420
 16777215
370
     9
100
AcDbVertex
100
AcDb2dVertex
 10
82.88294955214646
 20
-81.84236303509493
 30
0.0
  0
SEQEND
  5
53
330
50
100
AcDbEntity
  8
Livello 1
 62
     7
420
 16777215
370
     9
  0
POLYLINE
  5
54
330
1F
100
AcDbEntity
  8
Livello 1
 62
     7
420
 16777215
370
     9
100
AcDb2dPolyline
 66
     1
 10
0.0
 20
0.0
 30
0.0
  0
VERTEX
  5
55
330
54
100
AcDbEntity
  8
Livello 1
 62
     7
420
 16777215
370
     9
100
AcDbVertex
100
AcDb2dVertex
 10
46.66484353170288
 20
-81.84236303509493
 30
0.0
  0
VERTEX
  5
56
330
54
100
AcDbEntity
  8
Livello 1
 62
     7
420
 16777215
370
     9
100
AcDbVertex
100
AcDb2dVertex
 10
48.17586127093139
 20
-81.84236303509493
 30
0.0
  0
SEQEND
  5
57
330
54
100
AcDbEntity
  8
Livello 1
 62
     7
420
 16777215
370
     9
  0
POLYLINE
  5
58
330
1F
100
AcDbEntity
  8
Livello 1
 62
     7
420
 16777215
370
     9
100
AcDb2dPolyline
 66
     1
 10
0.0
 20
0.0
 30
0.0
  0
VERTEX
  5
59
330
58
100
AcDbEntity
  8
Livello 1
 62
     7
420
 16777215
370
     9
100
AcDbVertex
100
AcDb2dVertex
 10
81.37179070181044
 20
-82.23856775721835
 30
0.0
  0
VERTEX
  5
5A
330
58
100
AcDbEntity
  8
Livello 1
 62
     7
420
 16777215
370
     9
100
AcDbVertex
100
AcDb2dVertex
 10
48.17586127093139
 20
-82.23856775721835
 30
0.0
  0
SEQEND
  5
5B
330
58
100
AcDbEntity
  8
Livello 1
 62
     7
420
 16777215
370
     9
  0
POLYLINE
  5
5C
330
1F
100
AcDbEntity
  8
Livello 1
 62
     7
420
 16777215
370
     9
100
AcDb2dPolyline
 66
     1
 10
0.0
 20
0.0
 30
0.0
  0
VERTEX
  5
5D
330
5C
100
AcDbEntity
  8
Livello 1
 62
     7
420
 16777215
370
     9
100
AcDbVertex
100
AcDb2dVertex
 10
78.83066386918135
 20
-93.45434553208042
 30
0.0
  0
VERTEX
  5
5E
330
5C
100
AcDbEntity
  8
Livello 1
 62
     7
420
 16777215
370
     9
100
AcDbVertex
100
AcDb2dVertex
 10
81.37179070181044
 20
-82.23856775721835
 30
0.0
  0
SEQEND
  5
5F
330
5C
100
AcDbEntity
  8
Livello 1
 62
     7
420
 16777215
370
     9
  0
POLYLINE
  5
60
330
1F
100
AcDbEntity
  8
Livello 1
 62
     7
420
 16777215
370
     9
100
AcDb2dPolyline
 66
     1
 10
0.0
 20
0.0
 30
0.0
  0
VERTEX
  5
61
330
60
100
AcDbEntity
  8
Livello 1
 62
     7
420
 16777215
370
     9
100
AcDbVertex
100
AcDb2dVertex
 10
50.71730759498258
 20
-93.45434532212933
 30
0.0
  0
VERTEX
  5
62
330
60
100
AcDbEntity
  8
Livello 1
 62
     7
420
 16777215
370
     9
100
AcDbVertex
100
AcDb2dVertex
 10
78.83066386918135
 20
-93.45434532212933
 30
0.0
  0
SEQEND
  5
63
330
60
100
AcDbEntity
  8
Livello 1
 62
     7
420
 16777215
370
     9
  0
POLYLINE
  5
64
330
1F
100
AcDbEntity
  8
Livello 1
 62
     7
420
 16777215
370
     9
100
AcDb2dPolyline
 66
     1
 10
0.0
 20
0.0
 30
0.0
  0
VERTEX
  5
65
330
64
100
AcDbEntity
  8
Livello 1
 62
     7
420
 16777215
370
     9
100
AcDbVertex
100
AcDb2dVertex
 10
48.17586127093139
 20
-82.23856775721835
 30
0.0
  0
VERTEX
  5
66
330
64
100
AcDbEntity
  8
Livello 1
 62
     7
420
 16777215
370
     9
100
AcDbVertex
100
AcDb2dVertex
 10
50.71730759498258
 20
-93.45434553208042
 30
0.0
  0
SEQEND
  5
67
330
64
100
AcDbEntity
  8
Livello 1
 62
     7
420
 16777215
370
     9
  0
POLYLINE
  5
68
330
1F
100
AcDbEntity
  8
Livello 1
 62
     7
420
 16777215
370
     9
100
AcDb2dPolyline
 66
     1
 10
0.0
 20
0.0
 30
0.0
  0
VERTEX
  5
69
330
68
100
AcDbEntity
  8
Livello 1
 62
     7
420
 16777215
370
     9
100
AcDbVertex
100
AcDb2dVertex
 10
61.25671982609977
 20
-94.11545087751954
 30
0.0
  0
VERTEX
  5
6A
330
68
100
AcDbEntity
  8
Livello 1
 62
     7
420
 16777215
370
     9
100
AcDbVertex
100
AcDb2dVertex
 10
68.29124964663396
 20
-94.11545087751954
 30
0.0
  0
SEQEND
  5
6B
330
68
100
AcDbEntity
  8
Livello 1
 62
     7
420
 16777215
370
     9
  0
POLYLINE
  5
6C
330
1F
100
AcDbEntity
  8
Livello 1
 62
     7
420
 16777215
370
     9
100
AcDb2dPolyline
 66
     1
 10
0.0
 20
0.0
 30
0.0
  0
VERTEX
  5
6D
330
6C
100
AcDbEntity
  8
Livello 1
 62
     7
420
 16777215
370
     9
100
AcDbVertex
100
AcDb2dVertex
 10
67.28597411672513
 20
-95.12005615504626
 30
0.0
  0
VERTEX
  5
6E
330
6C
100
AcDbEntity
  8
Livello 1
 62
     7
420
 16777215
370
     9
100
AcDbVertex
100
AcDb2dVertex
 10
62.26164257823983
 20
-95.12005615504626
 30
0.0
  0
SEQEND
  5
6F
330
6C
100
AcDbEntity
  8
Livello 1
 62
     7
420
 16777215
370
     9
  0
POLYLINE
  5
70
330
1F
100
AcDbEntity
  8
Livello 1
 62
     7
420
 16777215
370
     9
100
AcDb2dPolyline
 66
     1
 10
0.0
 20
0.0
 30
0.0
  0
VERTEX
  5
71
330
70
100
AcDbEntity
  8
Livello 1
 62
     7
420
 16777215
370
     9
100
AcDbVertex
100
AcDb2dVertex
 10
52.21266200127735
 20
-95.96422992349336
 30
0.0
  0
VERTEX
  5
72
330
70
100
AcDbEntity
  8
Livello 1
 62
     7
420
 16777215
370
     9
100
AcDbVertex
100
AcDb2dVertex
 10
49.52805845865618
 20
-95.96422992349336
 30
0.0
  0
SEQEND
  5
73
330
70
100
AcDbEntity
  8
Livello 1
 62
     7
420
 16777215
370
     9
  0
POLYLINE
  5
74
330
1F
100
AcDbEntity
  8
Livello 1
 62
     7
420
 16777215
370
     9
100
AcDb2dPolyline
 66
     1
 10
0.0
 20
0.0
 30
0.0
  0
VERTEX
  5
75
330
74
100
AcDbEntity
  8
Livello 1
 62
     7
420
 16777215
370
     9
100
AcDbVertex
100
AcDb2dVertex
 10
80.01991101407755
 20
-95.96422992349336
 30
0.0
  0
VERTEX
  5
76
330
74
100
AcDbEntity
  8
Livello 1
 62
     7
420
 16777215
370
     9
100
AcDbVertex
100
AcDb2dVertex
 10
77.33534274923326
 20
-95.96422992349336
 30
0.0
  0
SEQEND
  5
77
330
74
100
AcDbEntity
  8
Livello 1
 62
     7
420
 16777215
370
     9
  0
POLYLINE
  5
78
330
1F
100
AcDbEntity
  8
Livello 1
 62
     7
420
 16777215
370
     9
100
AcDb2dPolyline
 66
     1
 10
0.0
 20
0.0
 30
0.0
  0
VERTEX
  5
79
330
78
100
AcDbEntity
  8
Livello 1
 62
     7
420
 16777215
370
     9
100
AcDbVertex
100
AcDb2dVertex
 10
62.26164257823983
 20
-95.96422992349336
 30
0.0
  0
VERTEX
  5
7A
330
78
100
AcDbEntity
  8
Livello 1
 62
     7
420
 16777215
370
     9
100
AcDbVertex
100
AcDb2dVertex
 10
67.28597411672513
 20
-95.96422992349336
 30
0.0
  0
SEQEND
  5
7B
330
78
100
AcDbEntity
  8
Livello 1
 62
     7
420
 16777215
370
     9
  0
SPLINE
  5
7C
330
1F
100
AcDbEntity
  8
Livello 1
 62
     7
420
 16777215
370
     9
100
AcDbSpline
210
0.0
220
0.0
230
1.0
 70
     8
 71
     3
 72
     8
 73
     4
 74
     0
 42
0.0000000001
 43
0.0000000001
 12
1.0
 22
0.0
 32
0.0
 13
1.0
 23
0.0
 33
0.0
 40
0.0
 40
0.0
 40
0.0
 40
0.0
 40
1.0
 40
1.0
 40
1.0
 40
1.0
 10
49.77267456352661
 20
-93.45434532212933
 30
0.0
 10
49.82178122894047
 20
-93.60903837764629
 30
0.0
 10
50.24222177376969
 20
-93.60903837764629
 30
0.0
 10
50.71730759498258
 20
-93.45434532212933
 30
0.0
  0
POLYLINE
  5
7D
330
1F
100
AcDbEntity
  8
Livello 1
 62
     7
420
 16777215
370
     9
100
AcDb2dPolyline
 66
     1
 10
0.0
 20
0.0
 30
0.0
  0
VERTEX
  5
7E
330
7D
100
AcDbEntity
  8
Livello 1
 62
     7
420
 16777215
370
     9
100
AcDbVertex
100
AcDb2dVertex
 10
50.71730759498258
 20
-93.45434532212933
 30
0.0
  0
VERTEX
  5
7F
330
7D
100
AcDbEntity
  8
Livello 1
 62
     7
420
 16777215
370
     9
100
AcDbVertex
100
AcDb2dVertex
 10
50.71730759498258
 20
-94.11545087751954
 30
0.0
  0
SEQEND
  5
80
330
7D
100
AcDbEntity
  8
Livello 1
 62
     7
420
 16777215
370
     9
  0
POLYLINE
  5
81
330
1F
100
AcDbEntity
  8
Livello 1
 62
     7
420
 16777215
370
     9
100
AcDb2dPolyline
 66
     1
 10
0.0
 20
0.0
 30
0.0
  0
VERTEX
  5
82
330
81
100
AcDbEntity
  8
Livello 1
 62
     7
420
 16777215
370
     9
100
AcDbVertex
100
AcDb2dVertex
 10
78.83066386918135
 20
-93.45434532212933
 30
0.0
  0
VERTEX
  5
83
330
81
100
AcDbEntity
  8
Livello 1
 62
     7
420
 16777215
370
     9
100
AcDbVertex
100
AcDb2dVertex
 10
78.83066386918135
 20
-94.11545087751954
 30
0.0
  0
SEQEND
  5
84
330
81
100
AcDbEntity
  8
Livello 1
 62
     7
420
 16777215
370
     9
  0
SPLINE
  5
85
330
1F
100
AcDbEntity
  8
Livello 1
 62
     7
420
 16777215
370
     9
100
AcDbSpline
210
0.0
220
0.0
230
1.0
 70
     8
 71
     3
 72
     8
 73
     4
 74
     0
 42
0.0000000001
 43
0.0000000001
 12
1.0
 22
0.0
 32
0.0
 13
1.0
 23
0.0
 33
0.0
 40
0.0
 40
0.0
 40
0.0
 40
0.0
 40
1.0
 40
1.0
 40
1.0
 40
1.0
 10
78.83066386918135
 20
-93.45434532212933
 30
0.0
 10
79.30557131007997
 20
-93.60903837764629
 30
0.0
 10
79.72622352157013
 20
-93.60903837764629
 30
0.0
 10
79.775330186984
 20
-93.45434532212933
 30
0.0
  0
POLYLINE
  5
86
330
1F
100
AcDbEntity
  8
Livello 1
 62
     7
420
 16777215
370
     9
100
AcDb2dPolyline
 66
     1
 10
0.0
 20
0.0
 30
0.0
  0
VERTEX
  5
87
330
86
100
AcDbEntity
  8
Livello 1
 62
     7
420
 16777215
370
     9
100
AcDbVertex
100
AcDb2dVertex
 10
81.37179070181044
 20
-82.23856775721835
 30
0.0
  0
VERTEX
  5
88
330
86
100
AcDbEntity
  8
Livello 1
 62
     7
420
 16777215
370
     9
100
AcDbVertex
100
AcDb2dVertex
 10
81.37179070181044
 20
-81.84236303509493
 30
0.0
  0
SEQEND
  5
89
330
86
100
AcDbEntity
  8
Livello 1
 62
     7
420
 16777215
370
     9
  0
POLYLINE
  5
8A
330
1F
100
AcDbEntity
  8
Livello 1
 62
     7
420
 16777215
370
     9
100
AcDb2dPolyline
 66
     1
 10
0.0
 20
0.0
 30
0.0
  0
VERTEX
  5
8B
330
8A
100
AcDbEntity
  8
Livello 1
 62
     7
420
 16777215
370
     9
100
AcDbVertex
100
AcDb2dVertex
 10
48.17586127093139
 20
-81.84236303509493
 30
0.0
  0
VERTEX
  5
8C
330
8A
100
AcDbEntity
  8
Livello 1
 62
     7
420
 16777215
370
     9
100
AcDbVertex
100
AcDb2dVertex
 10
48.17586127093139
 20
-82.23856775721835
 30
0.0
  0
SEQEND
  5
8D
330
8A
100
AcDbEntity
  8
Livello 1
 62
     7
420
 16777215
370
     9
  0
POLYLINE
  5
8E
330
1F
100
AcDbEntity
  8
Livello 1
 62
     7
420
 16777215
370
     9
100
AcDb2dPolyline
 66
     1
 10
0.0
 20
0.0
 30
0.0
  0
VERTEX
  5
8F
330
8E
100
AcDbEntity
  8
Livello 1
 62
     7
420
 16777215
370
     9
100
AcDbVertex
100
AcDb2dVertex
 10
67.28597411672513
 20
-95.12005631250958
 30
0.0
  0
VERTEX
  5
90
330
8E
100
AcDbEntity
  8
Livello 1
 62
     7
420
 16777215
370
     9
100
AcDbVertex
100
AcDb2dVertex
 10
67.28597411672513
 20
-95.96422992349336
 30
0.0
  0
SEQEND
  5
91
330
8E
100
AcDbEntity
  8
Livello 1
 62
     7
420
 16777215
370
     9
  0
SPLINE
  5
92
330
1F
100
AcDbEntity
  8
Livello 1
 62
     7
420
 16777215
370
     9
100
AcDbSpline
210
0.0
220
0.0
230
1.0
 70
     8
 71
     3
 72
    11
 73
     7
 74
     0
 42
0.0000000001
 43
0.0000000001
 12
1.0
 22
0.0
 32
0.0
 13
1.0
 23
0.0
 33
0.0
 40
0.0
 40
0.0
 40
0.0
 40
0.0
 40
1.0
 40
1.0
 40
1.0
 40
2.0
 40
2.0
 40
2.0
 40
2.0
 10
68.29124964663396
 20
-94.11545087751954
 30
0.0
 10
67.73625966079294
 20
-94.11545087751954
 30
0.0
 10
67.28597411672513
 20
-94.56538365518499
 30
0.0
 10
67.28597411672513
 20
-95.12005615504626
 30
0.0
 10
67.28597411672513
 20
-95.12005615504626
 30
0.0
 10
67.28597411672513
 20
-95.12005615504626
 30
0.0
 10
67.28597411672513
 20
-95.12005615504626
 30
0.0
  0
POLYLINE
  5
93
330
1F
100
AcDbEntity
  8
Livello 1
 62
     7
420
 16777215
370
     9
100
AcDb2dPolyline
 66
     1
 10
0.0
 20
0.0
 30
0.0
  0
VERTEX
  5
94
330
93
100
AcDbEntity
  8
Livello 1
 62
     7
420
 16777215
370
     9
100
AcDbVertex
100
AcDb2dVertex
 10
68.29124964663396
 20
-95.96422992349336
 30
0.0
  0
VERTEX
  5
95
330
93
100
AcDbEntity
  8
Livello 1
 62
     7
420
 16777215
370
     9
100
AcDbVertex
100
AcDb2dVertex
 10
67.28597411672513
 20
-95.96422992349336
 30
0.0
  0
SEQEND
  5
96
330
93
100
AcDbEntity
  8
Livello 1
 62
     7
420
 16777215
370
     9
  0
POLYLINE
  5
97
330
1F
100
AcDbEntity
  8
Livello 1
 62
     7
420
 16777215
370
     9
100
AcDb2dPolyline
 66
     1
 10
0.0
 20
0.0
 30
0.0
  0
VERTEX
  5
98
330
97
100
AcDbEntity
  8
Livello 1
 62
     7
420
 16777215
370
     9
100
AcDbVertex
100
AcDb2dVertex
 10
68.29124964663396
 20
-94.11545087751954
 30
0.0
  0
VERTEX
  5
99
330
97
100
AcDbEntity
  8
Livello 1
 62
     7
420
 16777215
370
     9
100
AcDbVertex
100
AcDb2dVertex
 10
78.83066386918135
 20
-94.11545087751954
 30
0.0
  0
SEQEND
  5
9A
330
97
100
AcDbEntity
  8
Livello 1
 62
     7
420
 16777215
370
     9
  0
SPLINE
  5
9B
330
1F
100
AcDbEntity
  8
Livello 1
 62
     7
420
 16777215
370
     9
100
AcDbSpline
210
0.0
220
0.0
230
1.0
 70
     8
 71
     3
 72
     8
 73
     4
 74
     0
 42
0.0000000001
 43
0.0000000001
 12
1.0
 22
0.0
 32
0.0
 13
1.0
 23
0.0
 33
0.0
 40
0.0
 40
0.0
 40
0.0
 40
0.0
 40
1.0
 40
1.0
 40
1.0
 40
1.0
 10
78.83066386918135
 20
-94.11545087751954
 30
0.0
 10
79.2321935341739
 20
-94.12991476640455
 30
0.0
 10
79.65182269013494
 20
-93.83605087758957
 30
0.0
 10
79.775330186984
 20
-93.45434532212933
 30
0.0
  0
POLYLINE
  5
9C
330
1F
100
AcDbEntity
  8
Livello 1
 62
     7
420
 16777215
370
     9
100
AcDb2dPolyline
 66
     1
 10
0.0
 20
0.0
 30
0.0
  0
VERTEX
  5
9D
330
9C
100
AcDbEntity
  8
Livello 1
 62
     7
420
 16777215
370
     9
100
AcDbVertex
100
AcDb2dVertex
 10
82.3164237332664
 20
-82.23856775721835
 30
0.0
  0
VERTEX
  5
9E
330
9C
100
AcDbEntity
  8
Livello 1
 62
     7
420
 16777215
370
     9
100
AcDbVertex
100
AcDb2dVertex
 10
79.775330186984
 20
-93.45434553208042
 30
0.0
  0
SEQEND
  5
9F
330
9C
100
AcDbEntity
  8
Livello 1
 62
     7
420
 16777215
370
     9
  0
SPLINE
  5
A0
330
1F
100
AcDbEntity
  8
Livello 1
 62
     7
420
 16777215
370
     9
100
AcDbSpline
210
0.0
220
0.0
230
1.0
 70
     8
 71
     3
 72
     8
 73
     4
 74
     0
 42
0.0000000001
 43
0.0000000001
 12
1.0
 22
0.0
 32
0.0
 13
1.0
 23
0.0
 33
0.0
 40
0.0
 40
0.0
 40
0.0
 40
0.0
 40
1.0
 40
1.0
 40
1.0
 40
1.0
 10
82.88294955214646
 20
-81.84236303509493
 30
0.0
 10
82.64214344717882
 20
-81.8327322017641
 30
0.0
 10
82.39015428694094
 20
-82.00982664616441
 30
0.0
 10
82.3164237332664
 20
-82.23856775721835
 30
0.0
  0
POLYLINE
  5
A1
330
1F
100
AcDbEntity
  8
Livello 1
 62
     7
420
 16777215
370
     9
100
AcDb2dPolyline
 66
     1
 10
0.0
 20
0.0
 30
0.0
  0
VERTEX
  5
A2
330
A1
100
AcDbEntity
  8
Livello 1
 62
     7
420
 16777215
370
     9
100
AcDbVertex
100
AcDb2dVertex
 10
83.26469037574077
 20
-81.84236303509493
 30
0.0
  0
VERTEX
  5
A3
330
A1
100
AcDbEntity
  8
Livello 1
 62
     7
420
 16777215
370
     9
100
AcDbVertex
100
AcDb2dVertex
 10
82.88294955214646
 20
-81.84236303509493
 30
0.0
  0
SEQEND
  5
A4
330
A1
100
AcDbEntity
  8
Livello 1
 62
     7
420
 16777215
370
     9
  0
SPLINE
  5
A5
330
1F
100
AcDbEntity
  8
Livello 1
 62
     7
420
 16777215
370
     9
100
AcDbSpline
210
0.0
220
0.0
230
1.0
 70
     8
 71
     3
 72
    11
 73
     7
 74
     0
 42
0.0000000001
 43
0.0000000001
 12
1.0
 22
0.0
 32
0.0
 13
1.0
 23
0.0
 33
0.0
 40
0.0
 40
0.0
 40
0.0
 40
0.0
 40
1.0
 40
1.0
 40
1.0
 40
2.0
 40
2.0
 40
2.0
 40
2.0
 10
83.8677639714662
 20
-82.4452602571667
 30
0.0
 10
83.8677639714662
 20
-82.11213220169405
 30
0.0
 10
83.59764203391313
 20
-81.84236303509493
 30
0.0
 10
83.26469037574077
 20
-81.84236303509493
 30
0.0
 10
83.26469037574077
 20
-81.84236303509493
 30
0.0
 10
83.26469037574077
 20
-81.84236303509493
 30
0.0
 10
83.26469037574077
 20
-81.84236303509493
 30
0.0
  0
POLYLINE
  5
A6
330
1F
100
AcDbEntity
  8
Livello 1
 62
     7
420
 16777215
370
     9
100
AcDb2dPolyline
 66
     1
 10
0.0
 20
0.0
 30
0.0
  0
VERTEX
  5
A7
330
A6
100
AcDbEntity
  8
Livello 1
 62
     7
420
 16777215
370
     9
100
AcDbVertex
100
AcDb2dVertex
 10
83.36477342874299
 20
-95.96422992349336
 30
0.0
  0
VERTEX
  5
A8
330
A6
100
AcDbEntity
  8
Livello 1
 62
     7
420
 16777215
370
     9
100
AcDbVertex
100
AcDb2dVertex
 10
80.01991101407755
 20
-95.96422992349336
 30
0.0
  0
SEQEND
  5
A9
330
A6
100
AcDbEntity
  8
Livello 1
 62
     7
420
 16777215
370
     9
  0
POLYLINE
  5
AA
330
1F
100
AcDbEntity
  8
Livello 1
 62
     7
420
 16777215
370
     9
100
AcDb2dPolyline
 66
     1
 10
0.0
 20
0.0
 30
0.0
  0
VERTEX
  5
AB
330
AA
100
AcDbEntity
  8
Livello 1
 62
     7
420
 16777215
370
     9
100
AcDbVertex
100
AcDb2dVertex
 10
83.8677639714662
 20
-95.46261525388455
 30
0.0
  0
VERTEX
  5
AC
330
AA
100
AcDbEntity
  8
Livello 1
 62
     7
420
 16777215
370
     9
100
AcDbVertex
100
AcDb2dVertex
 10
83.8677639714662
 20
-82.4452602571667
 30
0.0
  0
SEQEND
  5
AD
330
AA
100
AcDbEntity
  8
Livello 1
 62
     7
420
 16777215
370
     9
  0
SPLINE
  5
AE
330
1F
100
AcDbEntity
  8
Livello 1
 62
     7
420
 16777215
370
     9
100
AcDbSpline
210
0.0
220
0.0
230
1.0
 70
     8
 71
     3
 72
    11
 73
     7
 74
     0
 42
0.0000000001
 43
0.0000000001
 12
1.0
 22
0.0
 32
0.0
 13
1.0
 23
0.0
 33
0.0
 40
0.0
 40
0.0
 40
0.0
 40
0.0
 40
1.0
 40
1.0
 40
1.0
 40
2.0
 40
2.0
 40
2.0
 40
2.0
 10
83.36477342874299
 20
-95.96422992349336
 30
0.0
 10
83.64262119943228
 20
-95.96422992349336
 30
0.0
 10
83.8677639714662
 20
-95.73961631243809
 30
0.0
 10
83.8677639714662
 20
-95.46261520139677
 30
0.0
 10
83.8677639714662
 20
-95.46261520139677
 30
0.0
 10
83.8677639714662
 20
-95.46261520139677
 30
0.0
 10
83.8677639714662
 20
-95.46261520139677
 30
0.0
  0
POLYLINE
  5
AF
330
1F
100
AcDbEntity
  8
Livello 1
 62
     7
420
 16777215
370
     9
100
AcDb2dPolyline
 66
     1
 10
0.0
 20
0.0
 30
0.0
  0
VERTEX
  5
B0
330
AF
100
AcDbEntity
  8
Livello 1
 62
     7
420
 16777215
370
     9
100
AcDbVertex
100
AcDb2dVertex
 10
62.26164257823983
 20
-95.96422992349336
 30
0.0
  0
VERTEX
  5
B1
330
AF
100
AcDbEntity
  8
Livello 1
 62
     7
420
 16777215
370
     9
100
AcDbVertex
100
AcDb2dVertex
 10
62.26164257823983
 20
-95.12005631250958
 30
0.0
  0
SEQEND
  5
B2
330
AF
100
AcDbEntity
  8
Livello 1
 62
     7
420
 16777215
370
     9
  0
SPLINE
  5
B3
330
1F
100
AcDbEntity
  8
Livello 1
 62
     7
420
 16777215
370
     9
100
AcDbSpline
210
0.0
220
0.0
230
1.0
 70
     8
 71
     3
 72
    11
 73
     7
 74
     0
 42
0.0000000001
 43
0.0000000001
 12
1.0
 22
0.0
 32
0.0
 13
1.0
 23
0.0
 33
0.0
 40
0.0
 40
0.0
 40
0.0
 40
0.0
 40
1.0
 40
1.0
 40
1.0
 40
2.0
 40
2.0
 40
2.0
 40
2.0
 10
62.26164257823983
 20
-95.12005615504626
 30
0.0
 10
62.26164257823983
 20
-94.56538365518499
 30
0.0
 10
61.81174508971768
 20
-94.11545087751954
 30
0.0
 10
61.25671982609977
 20
-94.11545087751954
 30
0.0
 10
61.25671982609977
 20
-94.11545087751954
 30
0.0
 10
61.25671982609977
 20
-94.11545087751954
 30
0.0
 10
61.25671982609977
 20
-94.11545087751954
 30
0.0
  0
POLYLINE
  5
B4
330
1F
100
AcDbEntity
  8
Livello 1
 62
     7
420
 16777215
370
     9
100
AcDb2dPolyline
 66
     1
 10
0.0
 20
0.0
 30
0.0
  0
VERTEX
  5
B5
330
B4
100
AcDbEntity
  8
Livello 1
 62
     7
420
 16777215
370
     9
100
AcDbVertex
100
AcDb2dVertex
 10
62.26164257823983
 20
-95.96422992349336
 30
0.0
  0
VERTEX
  5
B6
330
B4
100
AcDbEntity
  8
Livello 1
 62
     7
420
 16777215
370
     9
100
AcDbVertex
100
AcDb2dVertex
 10
61.25671982609977
 20
-95.96422992349336
 30
0.0
  0
SEQEND
  5
B7
330
B4
100
AcDbEntity
  8
Livello 1
 62
     7
420
 16777215
370
     9
  0
POLYLINE
  5
B8
330
1F
100
AcDbEntity
  8
Livello 1
 62
     7
420
 16777215
370
     9
100
AcDb2dPolyline
 66
     1
 10
0.0
 20
0.0
 30
0.0
  0
VERTEX
  5
B9
330
B8
100
AcDbEntity
  8
Livello 1
 62
     7
420
 16777215
370
     9
100
AcDbVertex
100
AcDb2dVertex
 10
50.71730759498258
 20
-94.11545087751954
 30
0.0
  0
VERTEX
  5
BA
330
B8
100
AcDbEntity
  8
Livello 1
 62
     7
420
 16777215
370
     9
100
AcDbVertex
100
AcDb2dVertex
 10
61.25671982609977
 20
-94.11545087751954
 30
0.0
  0
SEQEND
  5
BB
330
B8
100
AcDbEntity
  8
Livello 1
 62
     7
420
 16777215
370
     9
  0
SPLINE
  5
BC
330
1F
100
AcDbEntity
  8
Livello 1
 62
     7
420
 16777215
370
     9
100
AcDbSpline
210
0.0
220
0.0
230
1.0
 70
     8
 71
     3
 72
     8
 73
     4
 74
     0
 42
0.0000000001
 43
0.0000000001
 12
1.0
 22
0.0
 32
0.0
 13
1.0
 23
0.0
 33
0.0
 40
0.0
 40
0.0
 40
0.0
 40
0.0
 40
1.0
 40
1.0
 40
1.0
 40
1.0
 10
49.77267456352661
 20
-93.45434532212933
 30
0.0
 10
49.89583054308157
 20
-93.83605087758957
 30
0.0
 10
50.31545843856794
 20
-94.12991476640455
 30
0.0
 10
50.71730759498258
 20
-94.11545087751954
 30
0.0
  0
POLYLINE
  5
BD
330
1F
100
AcDbEntity
  8
Livello 1
 62
     7
420
 16777215
370
     9
100
AcDb2dPolyline
 66
     1
 10
0.0
 20
0.0
 30
0.0
  0
VERTEX
  5
BE
330
BD
100
AcDbEntity
  8
Livello 1
 62
     7
420
 16777215
370
     9
100
AcDbVertex
100
AcDb2dVertex
 10
49.77267456352661
 20
-93.45434553208042
 30
0.0
  0
VERTEX
  5
BF
330
BD
100
AcDbEntity
  8
Livello 1
 62
     7
420
 16777215
370
     9
100
AcDbVertex
100
AcDb2dVertex
 10
47.23140462835981
 20
-82.23856775721835
 30
0.0
  0
SEQEND
  5
C0
330
BD
100
AcDbEntity
  8
Livello 1
 62
     7
420
 16777215
370
     9
  0
SPLINE
  5
C1
330
1F
100
AcDbEntity
  8
Livello 1
 62
     7
420
 16777215
370
     9
100
AcDbSpline
210
0.0
220
0.0
230
1.0
 70
     8
 71
     3
 72
     8
 73
     4
 74
     0
 42
0.0000000001
 43
0.0000000001
 12
1.0
 22
0.0
 32
0.0
 13
1.0
 23
0.0
 33
0.0
 40
0.0
 40
0.0
 40
0.0
 40
0.0
 40
1.0
 40
1.0
 40
1.0
 40
1.0
 10
47.23140462835981
 20
-82.23856775721835
 30
0.0
 10
47.15767407468528
 20
-82.00982664616441
 30
0.0
 10
46.90564963667052
 20
-81.8327322017641
 30
0.0
 10
46.66484353170288
 20
-81.84236303509493
 30
0.0
  0
POLYLINE
  5
C2
330
1F
100
AcDbEntity
  8
Livello 1
 62
     7
420
 16777215
370
     9
100
AcDb2dPolyline
 66
     1
 10
0.0
 20
0.0
 30
0.0
  0
VERTEX
  5
C3
330
C2
100
AcDbEntity
  8
Livello 1
 62
     7
420
 16777215
370
     9
100
AcDbVertex
100
AcDb2dVertex
 10
46.66484353170288
 20
-81.84236303509493
 30
0.0
  0
VERTEX
  5
C4
330
C2
100
AcDbEntity
  8
Livello 1
 62
     7
420
 16777215
370
     9
100
AcDbVertex
100
AcDb2dVertex
 10
46.28313798588545
 20
-81.84236303509493
 30
0.0
  0
SEQEND
  5
C5
330
C2
100
AcDbEntity
  8
Livello 1
 62
     7
420
 16777215
370
     9
  0
SPLINE
  5
C6
330
1F
100
AcDbEntity
  8
Livello 1
 62
     7
420
 16777215
370
     9
100
AcDbSpline
210
0.0
220
0.0
230
1.0
 70
     8
 71
     3
 72
    11
 73
     7
 74
     0
 42
0.0000000001
 43
0.0000000001
 12
1.0
 22
0.0
 32
0.0
 13
1.0
 23
0.0
 33
0.0
 40
0.0
 40
0.0
 40
0.0
 40
0.0
 40
1.0
 40
1.0
 40
1.0
 40
2.0
 40
2.0
 40
2.0
 40
2.0
 10
46.28313798588545
 20
-81.84236303509493
 30
0.0
 10
45.95001109962375
 20
-81.84236303509493
 30
0.0
 10
45.68024077904441
 20
-82.11213220169405
 30
0.0
 10
45.68024077904441
 20
-82.4452602571667
 30
0.0
 10
45.68024077904441
 20
-82.4452602571667
 30
0.0
 10
45.68024077904441
 20
-82.4452602571667
 30
0.0
 10
45.68024077904441
 20
-82.4452602571667
 30
0.0
  0
POLYLINE
  5
C7
330
1F
100
AcDbEntity
  8
Livello 1
 62
     7
420
 16777215
370
     9
100
AcDb2dPolyline
 66
     1
 10
0.0
 20
0.0
 30
0.0
  0
VERTEX
  5
C8
330
C7
100
AcDbEntity
  8
Livello 1
 62
     7
420
 16777215
370
     9
100
AcDbVertex
100
AcDb2dVertex
 10
49.52805845865618
 20
-95.96422992349336
 30
0.0
  0
VERTEX
  5
C9
330
C7
100
AcDbEntity
  8
Livello 1
 62
     7
420
 16777215
370
     9
100
AcDbVertex
100
AcDb2dVertex
 10
46.18305493288322
 20
-95.96422992349336
 30
0.0
  0
SEQEND
  5
CA
330
C7
100
AcDbEntity
  8
Livello 1
 62
     7
420
 16777215
370
     9
  0
POLYLINE
  5
CB
330
1F
100
AcDbEntity
  8
Livello 1
 62
     7
420
 16777215
370
     9
100
AcDb2dPolyline
 66
     1
 10
0.0
 20
0.0
 30
0.0
  0
VERTEX
  5
CC
330
CB
100
AcDbEntity
  8
Livello 1
 62
     7
420
 16777215
370
     9
100
AcDbVertex
100
AcDb2dVertex
 10
45.68024077904441
 20
-82.4452602571667
 30
0.0
  0
VERTEX
  5
CD
330
CB
100
AcDbEntity
  8
Livello 1
 62
     7
420
 16777215
370
     9
100
AcDbVertex
100
AcDb2dVertex
 10
45.68024077904441
 20
-95.46261525388455
 30
0.0
  0
SEQEND
  5
CE
330
CB
100
AcDbEntity
  8
Livello 1
 62
     7
420
 16777215
370
     9
  0
SPLINE
  5
CF
330
1F
100
AcDbEntity
  8
Livello 1
 62
     7
420
 16777215
370
     9
100
AcDbSpline
210
0.0
220
0.0
230
1.0
 70
    11
 71
     3
 72
    23
 73
    19
 74
     0
 42
0.0000000001
 43
0.0000000001
 12
1.0
 22
0.0
 32
0.0
 13
1.0
 23
0.0
 33
0.0
 40
0.0
 40
0.0
 40
0.0
 40
0.0
 40
1.0
 40
1.0
 40
1.0
 40
2.0
 40
2.0
 40
2.0
 40
3.0
 40
3.0
 40
3.0
 40
4.0
 40
4.0
 40
4.0
 40
5.0
 40
5.0
 40
5.0
 40
6.0
 40
6.0
 40
6.0
 40
6.0
 10
67.3748741144571
 20
-40.78442721202622
 30
0.0
 10
67.3748741144571
 20
-39.38862665681945
 30
0.0
 10
66.24436247663218
 20
-38.25797387932437
 30
0.0
 10
64.84909112333963
 20
-38.25797387932437
 30
0.0
 10
63.45381977004708
 20
-38.25797387932437
 30
0.0
 10
62.32316702111466
 20
-39.38862665681945
 30
0.0
 10
62.32316702111466
 20
-40.78442721202622
 30
0.0
 10
62.32316702111466
 20
-42.17916943389969
 30
0.0
 10
63.45381977004708
 20
-43.31035137806142
 30
0.0
 10
64.84909112333963
 20
-43.31035137806142
 30
0.0
 10
66.24436247663218
 20
-43.31035137806142
 30
0.0
 10
67.3748741144571
 20
-42.17916943389969
 30
0.0
 10
67.3748741144571
 20
-40.78442721202622
 30
0.0
 10
67.3748741144571
 20
-40.78442721202622
 30
0.0
 10
67.3748741144571
 20
-40.78442721202622
 30
0.0
 10
67.3748741144571
 20
-40.78442721202622
 30
0.0
 10
67.3748741144571
 20
-40.78442721202622
 30
0.0
 10
67.3748741144571
 20
-40.78442721202622
 30
0.0
 10
67.3748741144571
 20
-40.78442721202622
 30
0.0
  0
SPLINE
  5
D0
330
1F
100
AcDbEntity
  8
Livello 1
 62
     7
420
 16777215
370
     9
100
AcDbSpline
210
0.0
220
0.0
230
1.0
 70
    11
 71
     3
 72
    23
 73
    19
 74
     0
 42
0.0000000001
 43
0.0000000001
 12
1.0
 22
0.0
 32
0.0
 13
1.0
 23
0.0
 33
0.0
 40
0.0
 40
0.0
 40
0.0
 40
0.0
 40
1.0
 40
1.0
 40
1.0
 40
2.0
 40
2.0
 40
2.0
 40
3.0
 40
3.0
 40
3.0
 40
4.0
 40
4.0
 40
4.0
 40
5.0
 40
5.0
 40
5.0
 40
6.0
 40
6.0
 40
6.0
 40
6.0
 10
68.38582936644326
 20
-40.78442721202622
 30
0.0
 10
68.38582936644326
 20
-38.83088499029218
 30
0.0
 10
66.80245690683846
 20
-37.24751249068803
 30
0.0
 10
64.84909112333963
 20
-37.24751249068803
 30
0.0
 10
62.89572533984081
 20
-37.24751249068803
 30
0.0
 10
61.31217649135162
 20
-38.83088499029218
 30
0.0
 10
61.31217649135162
 20
-40.78442721202622
 30
0.0
 10
61.31217649135162
 20
-42.73726387820473
 30
0.0
 10
62.89572533984081
 20
-44.32063637780888
 30
0.0
 10
64.84909112333963
 20
-44.32063637780888
 30
0.0
 10
66.80245690683846
 20
-44.32063637780888
 30
0.0
 10
68.38582936644326
 20
-42.73726387820473
 30
0.0
 10
68.38582936644326
 20
-40.78442721202622
 30
0.0
 10
68.38582936644326
 20
-40.78442721202622
 30
0.0
 10
68.38582936644326
 20
-40.78442721202622
 30
0.0
 10
68.38582936644326
 20
-40.78442721202622
 30
0.0
 10
68.38582936644326
 20
-40.78442721202622
 30
0.0
 10
68.38582936644326
 20
-40.78442721202622
 30
0.0
 10
68.38582936644326
 20
-40.78442721202622
 30
0.0
  0
POLYLINE
  5
D1
330
1F
100
AcDbEntity
  8
Livello 1
 62
     7
420
 16777215
370
     9
100
AcDb2dPolyline
 66
     1
 10
0.0
 20
0.0
 30
0.0
  0
VERTEX
  5
D2
330
D1
100
AcDbEntity
  8
Livello 1
 62
     7
420
 16777215
370
     9
100
AcDbVertex
100
AcDb2dVertex
 10
90.78206942174894
 20
-26.64953888222664
 30
0.0
  0
VERTEX
  5
D3
330
D1
100
AcDbEntity
  8
Livello 1
 62
     7
420
 16777215
370
     9
100
AcDbVertex
100
AcDb2dVertex
 10
90.78206942174894
 20
-54.91793970849259
 30
0.0
  0
SEQEND
  5
D4
330
D1
100
AcDbEntity
  8
Livello 1
 62
     7
420
 16777215
370
     9
  0
POLYLINE
  5
D5
330
1F
100
AcDbEntity
  8
Livello 1
 62
     7
420
 16777215
370
     9
100
AcDb2dPolyline
 66
     1
 10
0.0
 20
0.0
 30
0.0
  0
VERTEX
  5
D6
330
D5
100
AcDbEntity
  8
Livello 1
 62
     7
420
 16777215
370
     9
100
AcDbVertex
100
AcDb2dVertex
 10
90.78206942174894
 20
-54.91793970849259
 30
0.0
  0
VERTEX
  5
D7
330
D5
100
AcDbEntity
  8
Livello 1
 62
     7
420
 16777215
370
     9
100
AcDbVertex
100
AcDb2dVertex
 10
93.3369190076657
 20
-57.47349720785366
 30
0.0
  0
SEQEND
  5
D8
330
D5
100
AcDbEntity
  8
Livello 1
 62
     7
420
 16777215
370
     9
  0
POLYLINE
  5
D9
330
1F
100
AcDbEntity
  8
Livello 1
 62
     7
420
 16777215
370
     9
100
AcDb2dPolyline
 66
     1
 10
0.0
 20
0.0
 30
0.0
  0
VERTEX
  5
DA
330
D9
100
AcDbEntity
  8
Livello 1
 62
     7
420
 16777215
370
     9
100
AcDbVertex
100
AcDb2dVertex
 10
39.82236592849125
 20
-55.86807609714423
 30
0.0
  0
VERTEX
  5
DB
330
D9
100
AcDbEntity
  8
Livello 1
 62
     7
420
 16777215
370
     9
100
AcDbVertex
100
AcDb2dVertex
 10
37.2680079381028
 20
-58.42331609650506
 30
0.0
  0
SEQEND
  5
DC
330
D9
100
AcDbEntity
  8
Livello 1
 62
     7
420
 16777215
370
     9
  0
POLYLINE
  5
DD
330
1F
100
AcDbEntity
  8
Livello 1
 62
     7
420
 16777215
370
     9
100
AcDb2dPolyline
 66
     1
 10
0.0
 20
0.0
 30
0.0
  0
VERTEX
  5
DE
330
DD
100
AcDbEntity
  8
Livello 1
 62
     7
420
 16777215
370
     9
100
AcDbVertex
100
AcDb2dVertex
 10
89.83274442198635
 20
-55.86807609714423
 30
0.0
  0
VERTEX
  5
DF
330
DD
100
AcDbEntity
  8
Livello 1
 62
     7
420
 16777215
370
     9
100
AcDbVertex
100
AcDb2dVertex
 10
39.82236592849125
 20
-55.86807609714423
 30
0.0
  0
SEQEND
  5
E0
330
DD
100
AcDbEntity
  8
Livello 1
 62
     7
420
 16777215
370
     9
  0
POLYLINE
  5
E1
330
1F
100
AcDbEntity
  8
Livello 1
 62
     7
420
 16777215
370
     9
100
AcDb2dPolyline
 66
     1
 10
0.0
 20
0.0
 30
0.0
  0
VERTEX
  5
E2
330
E1
100
AcDbEntity
  8
Livello 1
 62
     7
420
 16777215
370
     9
100
AcDbVertex
100
AcDb2dVertex
 10
39.82236592849125
 20
-26.64953888222664
 30
0.0
  0
VERTEX
  5
E3
330
E1
100
AcDbEntity
  8
Livello 1
 62
     7
420
 16777215
370
     9
100
AcDbVertex
100
AcDb2dVertex
 10
39.82236592849125
 20
-54.91793970849259
 30
0.0
  0
SEQEND
  5
E4
330
E1
100
AcDbEntity
  8
Livello 1
 62
     7
420
 16777215
370
     9
  0
POLYLINE
  5
E5
330
1F
100
AcDbEntity
  8
Livello 1
 62
     7
420
 16777215
370
     9
100
AcDb2dPolyline
 66
     1
 10
0.0
 20
0.0
 30
0.0
  0
VERTEX
  5
E6
330
E5
100
AcDbEntity
  8
Livello 1
 62
     7
420
 16777215
370
     9
100
AcDbVertex
100
AcDb2dVertex
 10
89.83274442198635
 20
-26.64953888222664
 30
0.0
  0
VERTEX
  5
E7
330
E5
100
AcDbEntity
  8
Livello 1
 62
     7
420
 16777215
370
     9
100
AcDbVertex
100
AcDb2dVertex
 10
39.82236592849125
 20
-26.64953888222664
 30
0.0
  0
SEQEND
  5
E8
330
E5
100
AcDbEntity
  8
Livello 1
 62
     7
420
 16777215
370
     9
  0
POLYLINE
  5
E9
330
1F
100
AcDbEntity
  8
Livello 1
 62
     7
420
 16777215
370
     9
100
AcDb2dPolyline
 66
     1
 10
0.0
 20
0.0
 30
0.0
  0
VERTEX
  5
EA
330
E9
100
AcDbEntity
  8
Livello 1
 62
     7
420
 16777215
370
     9
100
AcDbVertex
100
AcDb2dVertex
 10
39.82236592849125
 20
-54.91793970849259
 30
0.0
  0
VERTEX
  5
EB
330
E9
100
AcDbEntity
  8
Livello 1
 62
     7
420
 16777215
370
     9
100
AcDbVertex
100
AcDb2dVertex
 10
89.83274442198635
 20
-54.91793970849259
 30
0.0
  0
SEQEND
  5
EC
330
E9
100
AcDbEntity
  8
Livello 1
 62
     7
420
 16777215
370
     9
  0
POLYLINE
  5
ED
330
1F
100
AcDbEntity
  8
Livello 1
 62
     7
420
 16777215
370
     9
100
AcDb2dPolyline
 66
     1
 10
0.0
 20
0.0
 30
0.0
  0
VERTEX
  5
EE
330
ED
100
AcDbEntity
  8
Livello 1
 62
     7
420
 16777215
370
     9
100
AcDbVertex
100
AcDb2dVertex
 10
89.83274442198635
 20
-54.91793970849259
 30
0.0
  0
VERTEX
  5
EF
330
ED
100
AcDbEntity
  8
Livello 1
 62
     7
420
 16777215
370
     9
100
AcDbVertex
100
AcDb2dVertex
 10
89.83274442198635
 20
-26.64953888222664
 30
0.0
  0
SEQEND
  5
F0
330
ED
100
AcDbEntity
  8
Livello 1
 62
     7
420
 16777215
370
     9
  0
POLYLINE
  5
F1
330
1F
100
AcDbEntity
  8
Livello 1
 62
     7
420
 16777215
370
     9
100
AcDb2dPolyline
 66
     1
 10
0.0
 20
0.0
 30
0.0
  0
VERTEX
  5
F2
330
F1
100
AcDbEntity
  8
Livello 1
 62
     7
420
 16777215
370
     9
100
AcDbVertex
100
AcDb2dVertex
 10
39.82236592849125
 20
-25.69989638246379
 30
0.0
  0
VERTEX
  5
F3
330
F1
100
AcDbEntity
  8
Livello 1
 62
     7
420
 16777215
370
     9
100
AcDbVertex
100
AcDb2dVertex
 10
89.83274442198635
 20
-25.69989638246379
 30
0.0
  0
SEQEND
  5
F4
330
F1
100
AcDbEntity
  8
Livello 1
 62
     7
420
 16777215
370
     9
  0
POLYLINE
  5
F5
330
1F
100
AcDbEntity
  8
Livello 1
 62
     7
420
 16777215
370
     9
100
AcDb2dPolyline
 66
     1
 10
0.0
 20
0.0
 30
0.0
  0
VERTEX
  5
F6
330
F5
100
AcDbEntity
  8
Livello 1
 62
     7
420
 16777215
370
     9
100
AcDbVertex
100
AcDb2dVertex
 10
89.83274442198635
 20
-25.69989638246379
 30
0.0
  0
VERTEX
  5
F7
330
F5
100
AcDbEntity
  8
Livello 1
 62
     7
420
 16777215
370
     9
100
AcDbVertex
100
AcDb2dVertex
 10
92.3869590319012
 20
-23.14500916088041
 30
0.0
  0
SEQEND
  5
F8
330
F5
100
AcDbEntity
  8
Livello 1
 62
     7
420
 16777215
370
     9
  0
POLYLINE
  5
F9
330
1F
100
AcDbEntity
  8
Livello 1
 62
     7
420
 16777215
370
     9
100
AcDb2dPolyline
 66
     1
 10
0.0
 20
0.0
 30
0.0
  0
VERTEX
  5
FA
330
F9
100
AcDbEntity
  8
Livello 1
 62
     7
420
 16777215
370
     9
100
AcDbVertex
100
AcDb2dVertex
 10
38.87325261937149
 20
-54.91793970849259
 30
0.0
  0
VERTEX
  5
FB
330
F9
100
AcDbEntity
  8
Livello 1
 62
     7
420
 16777215
370
     9
100
AcDbVertex
100
AcDb2dVertex
 10
38.87325261937149
 20
-26.64953888222664
 30
0.0
  0
SEQEND
  5
FC
330
F9
100
AcDbEntity
  8
Livello 1
 62
     7
420
 16777215
370
     9
  0
POLYLINE
  5
FD
330
1F
100
AcDbEntity
  8
Livello 1
 62
     7
420
 16777215
370
     9
100
AcDb2dPolyline
 66
     1
 10
0.0
 20
0.0
 30
0.0
  0
VERTEX
  5
FE
330
FD
100
AcDbEntity
  8
Livello 1
 62
     7
420
 16777215
370
     9
100
AcDbVertex
100
AcDb2dVertex
 10
38.87325261937149
 20
-26.64953888222664
 30
0.0
  0
VERTEX
  5
FF
330
FD
100
AcDbEntity
  8
Livello 1
 62
     7
420
 16777215
370
     9
100
AcDbVertex
100
AcDb2dVertex
 10
36.31836546233019
 20
-24.09429888286516
 30
0.0
  0
SEQEND
  5
100
330
FD
100
AcDbEntity
  8
Livello 1
 62
     7
420
 16777215
370
     9
  0
SPLINE
  5
101
330
1F
100
AcDbEntity
  8
Livello 1
 62
     7
420
 16777215
370
     9
100
AcDbSpline
210
0.0
220
0.0
230
1.0
 70
     8
 71
     3
 72
     8
 73
     4
 74
     0
 42
0.0000000001
 43
0.0000000001
 12
1.0
 22
0.0
 32
0.0
 13
1.0
 23
0.0
 33
0.0
 40
0.0
 40
0.0
 40
0.0
 40
0.0
 40
1.0
 40
1.0
 40
1.0
 40
1.0
 10
39.82236592849125
 20
-25.69989638246379
 30
0.0
 10
39.34541038510385
 20
-25.74932054911829
 30
0.0
 10
38.92235928478566
 20
-26.17205416012373
 30
0.0
 10
38.87325261937149
 20
-26.64953888222664
 30
0.0
  0
POLYLINE
  5
102
330
1F
100
AcDbEntity
  8
Livello 1
 62
     7
420
 16777215
370
     9
100
AcDb2dPolyline
 66
     1
 10
0.0
 20
0.0
 30
0.0
  0
VERTEX
  5
103
330
102
100
AcDbEntity
  8
Livello 1
 62
     7
420
 16777215
370
     9
100
AcDbVertex
100
AcDb2dVertex
 10
39.82236592849125
 20
-26.64953888222664
 30
0.0
  0
VERTEX
  5
104
330
102
100
AcDbEntity
  8
Livello 1
 62
     7
420
 16777215
370
     9
100
AcDbVertex
100
AcDb2dVertex
 10
38.87325261937149
 20
-26.64953888222664
 30
0.0
  0
SEQEND
  5
105
330
102
100
AcDbEntity
  8
Livello 1
 62
     7
420
 16777215
370
     9
  0
POLYLINE
  5
106
330
1F
100
AcDbEntity
  8
Livello 1
 62
     7
420
 16777215
370
     9
100
AcDb2dPolyline
 66
     1
 10
0.0
 20
0.0
 30
0.0
  0
VERTEX
  5
107
330
106
100
AcDbEntity
  8
Livello 1
 62
     7
420
 16777215
370
     9
100
AcDbVertex
100
AcDb2dVertex
 10
39.82236592849125
 20
-25.69989638246379
 30
0.0
  0
VERTEX
  5
108
330
106
100
AcDbEntity
  8
Livello 1
 62
     7
420
 16777215
370
     9
100
AcDbVertex
100
AcDb2dVertex
 10
39.82236592849125
 20
-26.64953888222664
 30
0.0
  0
SEQEND
  5
109
330
106
100
AcDbEntity
  8
Livello 1
 62
     7
420
 16777215
370
     9
  0
SPLINE
  5
10A
330
1F
100
AcDbEntity
  8
Livello 1
 62
     7
420
 16777215
370
     9
100
AcDbSpline
210
0.0
220
0.0
230
1.0
 70
     8
 71
     3
 72
     8
 73
     4
 74
     0
 42
0.0000000001
 43
0.0000000001
 12
1.0
 22
0.0
 32
0.0
 13
1.0
 23
0.0
 33
0.0
 40
0.0
 40
0.0
 40
0.0
 40
0.0
 40
1.0
 40
1.0
 40
1.0
 40
1.0
 10
38.87325261937149
 20
-54.91793970849259
 30
0.0
 10
38.92235928478566
 20
-55.39542443059582
 30
0.0
 10
39.34541038510385
 20
-55.81847554160085
 30
0.0
 10
39.82236592849125
 20
-55.86807609714423
 30
0.0
  0
POLYLINE
  5
10B
330
1F
100
AcDbEntity
  8
Livello 1
 62
     7
420
 16777215
370
     9
100
AcDb2dPolyline
 66
     1
 10
0.0
 20
0.0
 30
0.0
  0
VERTEX
  5
10C
330
10B
100
AcDbEntity
  8
Livello 1
 62
     7
420
 16777215
370
     9
100
AcDbVertex
100
AcDb2dVertex
 10
39.82236592849125
 20
-54.91793970849259
 30
0.0
  0
VERTEX
  5
10D
330
10B
100
AcDbEntity
  8
Livello 1
 62
     7
420
 16777215
370
     9
100
AcDbVertex
100
AcDb2dVertex
 10
38.87325261937149
 20
-54.91793970849259
 30
0.0
  0
SEQEND
  5
10E
330
10B
100
AcDbEntity
  8
Livello 1
 62
     7
420
 16777215
370
     9
  0
POLYLINE
  5
10F
330
1F
100
AcDbEntity
  8
Livello 1
 62
     7
420
 16777215
370
     9
100
AcDb2dPolyline
 66
     1
 10
0.0
 20
0.0
 30
0.0
  0
VERTEX
  5
110
330
10F
100
AcDbEntity
  8
Livello 1
 62
     7
420
 16777215
370
     9
100
AcDbVertex
100
AcDb2dVertex
 10
89.83274442198635
 20
-25.69989638246379
 30
0.0
  0
VERTEX
  5
111
330
10F
100
AcDbEntity
  8
Livello 1
 62
     7
420
 16777215
370
     9
100
AcDbVertex
100
AcDb2dVertex
 10
89.83274442198635
 20
-26.64953888222664
 30
0.0
  0
SEQEND
  5
112
330
10F
100
AcDbEntity
  8
Livello 1
 62
     7
420
 16777215
370
     9
  0
SPLINE
  5
113
330
1F
100
AcDbEntity
  8
Livello 1
 62
     7
420
 16777215
370
     9
100
AcDbSpline
210
0.0
220
0.0
230
1.0
 70
     8
 71
     3
 72
     8
 73
     4
 74
     0
 42
0.0000000001
 43
0.0000000001
 12
1.0
 22
0.0
 32
0.0
 13
1.0
 23
0.0
 33
0.0
 40
0.0
 40
0.0
 40
0.0
 40
0.0
 40
1.0
 40
1.0
 40
1.0
 40
1.0
 10
90.78206942174894
 20
-26.64953888222664
 30
0.0
 10
90.73296046298711
 20
-26.17205416012373
 30
0.0
 10
90.30973297378455
 20
-25.74932054911829
 30
0.0
 10
89.83274442198635
 20
-25.69989638246379
 30
0.0
  0
POLYLINE
  5
114
330
1F
100
AcDbEntity
  8
Livello 1
 62
     7
420
 16777215
370
     9
100
AcDb2dPolyline
 66
     1
 10
0.0
 20
0.0
 30
0.0
  0
VERTEX
  5
115
330
114
100
AcDbEntity
  8
Livello 1
 62
     7
420
 16777215
370
     9
100
AcDbVertex
100
AcDb2dVertex
 10
39.82236592849125
 20
-54.91793970849259
 30
0.0
  0
VERTEX
  5
116
330
114
100
AcDbEntity
  8
Livello 1
 62
     7
420
 16777215
370
     9
100
AcDbVertex
100
AcDb2dVertex
 10
39.82236592849125
 20
-55.86807609714423
 30
0.0
  0
SEQEND
  5
117
330
114
100
AcDbEntity
  8
Livello 1
 62
     7
420
 16777215
370
     9
  0
POLYLINE
  5
118
330
1F
100
AcDbEntity
  8
Livello 1
 62
     7
420
 16777215
370
     9
100
AcDb2dPolyline
 66
     1
 10
0.0
 20
0.0
 30
0.0
  0
VERTEX
  5
119
330
118
100
AcDbEntity
  8
Livello 1
 62
     7
420
 16777215
370
     9
100
AcDbVertex
100
AcDb2dVertex
 10
90.78206942174894
 20
-26.64953888222664
 30
0.0
  0
VERTEX
  5
11A
330
118
100
AcDbEntity
  8
Livello 1
 62
     7
420
 16777215
370
     9
100
AcDbVertex
100
AcDb2dVertex
 10
89.83274442198635
 20
-26.64953888222664
 30
0.0
  0
SEQEND
  5
11B
330
118
100
AcDbEntity
  8
Livello 1
 62
     7
420
 16777215
370
     9
  0
POLYLINE
  5
11C
330
1F
100
AcDbEntity
  8
Livello 1
 62
     7
420
 16777215
370
     9
100
AcDb2dPolyline
 66
     1
 10
0.0
 20
0.0
 30
0.0
  0
VERTEX
  5
11D
330
11C
100
AcDbEntity
  8
Livello 1
 62
     7
420
 16777215
370
     9
100
AcDbVertex
100
AcDb2dVertex
 10
89.83274442198635
 20
-54.91793970849259
 30
0.0
  0
VERTEX
  5
11E
330
11C
100
AcDbEntity
  8
Livello 1
 62
     7
420
 16777215
370
     9
100
AcDbVertex
100
AcDb2dVertex
 10
89.83274442198635
 20
-55.86807609714423
 30
0.0
  0
SEQEND
  5
11F
330
11C
100
AcDbEntity
  8
Livello 1
 62
     7
420
 16777215
370
     9
  0
POLYLINE
  5
120
330
1F
100
AcDbEntity
  8
Livello 1
 62
     7
420
 16777215
370
     9
100
AcDb2dPolyline
 66
     1
 10
0.0
 20
0.0
 30
0.0
  0
VERTEX
  5
121
330
120
100
AcDbEntity
  8
Livello 1
 62
     7
420
 16777215
370
     9
100
AcDbVertex
100
AcDb2dVertex
 10
90.78206942174894
 20
-54.91793970849259
 30
0.0
  0
VERTEX
  5
122
330
120
100
AcDbEntity
  8
Livello 1
 62
     7
420
 16777215
370
     9
100
AcDbVertex
100
AcDb2dVertex
 10
89.83274442198635
 20
-54.91793970849259
 30
0.0
  0
SEQEND
  5
123
330
120
100
AcDbEntity
  8
Livello 1
 62
     7
420
 16777215
370
     9
  0
SPLINE
  5
124
330
1F
100
AcDbEntity
  8
Livello 1
 62
     7
420
 16777215
370
     9
100
AcDbSpline
210
0.0
220
0.0
230
1.0
 70
     8
 71
     3
 72
     8
 73
     4
 74
     0
 42
0.0000000001
 43
0.0000000001
 12
1.0
 22
0.0
 32
0.0
 13
1.0
 23
0.0
 33
0.0
 40
0.0
 40
0.0
 40
0.0
 40
0.0
 40
1.0
 40
1.0
 40
1.0
 40
1.0
 10
89.83274442198635
 20
-55.86807609714423
 30
0.0
 10
90.30973297378455
 20
-55.81847554160085
 30
0.0
 10
90.73296046298711
 20
-55.39542443059582
 30
0.0
 10
90.78206942174894
 20
-54.91793970849259
 30
0.0
  0
POLYLINE
  5
125
330
1F
100
AcDbEntity
  8
Livello 1
 62
     7
420
 16777215
370
     9
100
AcDb2dPolyline
 66
     1
 10
0.0
 20
0.0
 30
0.0
  0
VERTEX
  5
126
330
125
100
AcDbEntity
  8
Livello 1
 62
     7
420
 16777215
370
     9
100
AcDbVertex
100
AcDb2dVertex
 10
93.3369190076657
 20
-24.09429888286516
 30
0.0
  0
VERTEX
  5
127
330
125
100
AcDbEntity
  8
Livello 1
 62
     7
420
 16777215
370
     9
100
AcDbVertex
100
AcDb2dVertex
 10
90.78206942174894
 20
-26.64953888222664
 30
0.0
  0
SEQEND
  5
128
330
125
100
AcDbEntity
  8
Livello 1
 62
     7
420
 16777215
370
     9
  0
POLYLINE
  5
129
330
1F
100
AcDbEntity
  8
Livello 1
 62
     7
420
 16777215
370
     9
100
AcDb2dPolyline
 66
     1
 10
0.0
 20
0.0
 30
0.0
  0
VERTEX
  5
12A
330
129
100
AcDbEntity
  8
Livello 1
 62
     7
420
 16777215
370
     9
100
AcDbVertex
100
AcDb2dVertex
 10
93.3369190076657
 20
-57.47349720785366
 30
0.0
  0
VERTEX
  5
12B
330
129
100
AcDbEntity
  8
Livello 1
 62
     7
420
 16777215
370
     9
100
AcDbVertex
100
AcDb2dVertex
 10
93.3369190076657
 20
-24.09429888286516
 30
0.0
  0
SEQEND
  5
12C
330
129
100
AcDbEntity
  8
Livello 1
 62
     7
420
 16777215
370
     9
  0
POLYLINE
  5
12D
330
1F
100
AcDbEntity
  8
Livello 1
 62
     7
420
 16777215
370
     9
100
AcDb2dPolyline
 66
     1
 10
0.0
 20
0.0
 30
0.0
  0
VERTEX
  5
12E
330
12D
100
AcDbEntity
  8
Livello 1
 62
     7
420
 16777215
370
     9
100
AcDbVertex
100
AcDb2dVertex
 10
35.74803054661842
 20
-57.47349720785366
 30
0.0
  0
VERTEX
  5
12F
330
12D
100
AcDbEntity
  8
Livello 1
 62
     7
420
 16777215
370
     9
100
AcDbVertex
100
AcDb2dVertex
 10
35.74803054661842
 20
-24.09429888286516
 30
0.0
  0
SEQEND
  5
130
330
12D
100
AcDbEntity
  8
Livello 1
 62
     7
420
 16777215
370
     9
  0
SPLINE
  5
131
330
1F
100
AcDbEntity
  8
Livello 1
 62
     7
420
 16777215
370
     9
100
AcDbSpline
210
0.0
220
0.0
230
1.0
 70
     8
 71
     3
 72
     8
 73
     4
 74
     0
 42
0.0000000001
 43
0.0000000001
 12
1.0
 22
0.0
 32
0.0
 13
1.0
 23
0.0
 33
0.0
 40
0.0
 40
0.0
 40
0.0
 40
0.0
 40
1.0
 40
1.0
 40
1.0
 40
1.0
 10
37.2680079381028
 20
-22.57502610546724
 30
0.0
 10
36.41312157102387
 20
-22.56349027213688
 30
0.0
 10
35.73649381050831
 20
-23.24025916085675
 30
0.0
 10
35.74803054661842
 20
-24.09429888286516
 30
0.0
  0
SPLINE
  5
132
330
1F
100
AcDbEntity
  8
Livello 1
 62
     7
420
 16777215
370
     9
100
AcDbSpline
210
0.0
220
0.0
230
1.0
 70
     8
 71
     3
 72
     8
 73
     4
 74
     0
 42
0.0000000001
 43
0.0000000001
 12
1.0
 22
0.0
 32
0.0
 13
1.0
 23
0.0
 33
0.0
 40
0.0
 40
0.0
 40
0.0
 40
0.0
 40
1.0
 40
1.0
 40
1.0
 40
1.0
 10
35.74803054661842
 20
-57.47349720785366
 30
0.0
 10
35.73649381050831
 20
-58.32788970764048
 30
0.0
 10
36.41312157102387
 20
-59.00483498524859
 30
0.0
 10
37.2680079381028
 20
-58.99245248525198
 30
0.0
  0
POLYLINE
  5
133
330
1F
100
AcDbEntity
  8
Livello 1
 62
     7
420
 16777215
370
     9
100
AcDb2dPolyline
 66
     1
 10
0.0
 20
0.0
 30
0.0
  0
VERTEX
  5
134
330
133
100
AcDbEntity
  8
Livello 1
 62
     7
420
 16777215
370
     9
100
AcDbVertex
100
AcDb2dVertex
 10
37.2680079381028
 20
-22.57502610546724
 30
0.0
  0
VERTEX
  5
135
330
133
100
AcDbEntity
  8
Livello 1
 62
     7
420
 16777215
370
     9
100
AcDbVertex
100
AcDb2dVertex
 10
92.3869590319012
 20
-22.57502610546724
 30
0.0
  0
SEQEND
  5
136
330
133
100
AcDbEntity
  8
Livello 1
 62
     7
420
 16777215
370
     9
  0
POLYLINE
  5
137
330
1F
100
AcDbEntity
  8
Livello 1
 62
     7
420
 16777215
370
     9
100
AcDb2dPolyline
 66
     1
 10
0.0
 20
0.0
 30
0.0
  0
VERTEX
  5
138
330
137
100
AcDbEntity
  8
Livello 1
 62
     7
420
 16777215
370
     9
100
AcDbVertex
100
AcDb2dVertex
 10
92.3869590319012
 20
-58.99245248525198
 30
0.0
  0
VERTEX
  5
139
330
137
100
AcDbEntity
  8
Livello 1
 62
     7
420
 16777215
370
     9
100
AcDbVertex
100
AcDb2dVertex
 10
37.2680079381028
 20
-58.99245248525198
 30
0.0
  0
SEQEND
  5
13A
330
137
100
AcDbEntity
  8
Livello 1
 62
     7
420
 16777215
370
     9
  0
SPLINE
  5
13B
330
1F
100
AcDbEntity
  8
Livello 1
 62
     7
420
 16777215
370
     9
100
AcDbSpline
210
0.0
220
0.0
230
1.0
 70
     8
 71
     3
 72
     8
 73
     4
 74
     0
 42
0.0000000001
 43
0.0000000001
 12
1.0
 22
0.0
 32
0.0
 13
1.0
 23
0.0
 33
0.0
 40
0.0
 40
0.0
 40
0.0
 40
0.0
 40
1.0
 40
1.0
 40
1.0
 40
1.0
 10
93.9062317709191
 20
-24.09429888286516
 30
0.0
 10
93.91882593726447
 20
-23.24025916085675
 30
0.0
 10
93.24202178786452
 20
-22.56349027213688
 30
0.0
 10
92.3869590319012
 20
-22.57502610546724
 30
0.0
  0
SPLINE
  5
13C
330
1F
100
AcDbEntity
  8
Livello 1
 62
     7
420
 16777215
370
     9
100
AcDbSpline
210
0.0
220
0.0
230
1.0
 70
     8
 71
     3
 72
     8
 73
     4
 74
     0
 42
0.0000000001
 43
0.0000000001
 12
1.0
 22
0.0
 32
0.0
 13
1.0
 23
0.0
 33
0.0
 40
0.0
 40
0.0
 40
0.0
 40
0.0
 40
1.0
 40
1.0
 40
1.0
 40
1.0
 10
92.3869590319012
 20
-58.99245248525198
 30
0.0
 10
93.24202178786452
 20
-59.00483498524859
 30
0.0
 10
93.91882593726447
 20
-58.32788970764048
 30
0.0
 10
93.9062317709191
 20
-57.47349720785366
 30
0.0
  0
POLYLINE
  5
13D
330
1F
100
AcDbEntity
  8
Livello 1
 62
     7
420
 16777215
370
     9
100
AcDb2dPolyline
 66
     1
 10
0.0
 20
0.0
 30
0.0
  0
VERTEX
  5
13E
330
13D
100
AcDbEntity
  8
Livello 1
 62
     7
420
 16777215
370
     9
100
AcDbVertex
100
AcDb2dVertex
 10
93.9062317709191
 20
-24.09429888286516
 30
0.0
  0
VERTEX
  5
13F
330
13D
100
AcDbEntity
  8
Livello 1
 62
     7
420
 16777215
370
     9
100
AcDbVertex
100
AcDb2dVertex
 10
93.9062317709191
 20
-57.47349720785366
 30
0.0
  0
SEQEND
  5
140
330
13D
100
AcDbEntity
  8
Livello 1
 62
     7
420
 16777215
370
     9
  0
POLYLINE
  5
141
330
1F
100
AcDbEntity
  8
Livello 1
 62
     7
420
 16777215
370
     9
100
AcDb2dPolyline
 66
     1
 10
0.0
 20
0.0
 30
0.0
  0
VERTEX
  5
142
330
141
100
AcDbEntity
  8
Livello 1
 62
     7
420
 16777215
370
     9
100
AcDbVertex
100
AcDb2dVertex
 10
92.3869590319012
 20
-58.42331609650506
 30
0.0
  0
VERTEX
  5
143
330
141
100
AcDbEntity
  8
Livello 1
 62
     7
420
 16777215
370
     9
100
AcDbVertex
100
AcDb2dVertex
 10
89.83274442198635
 20
-55.86807609714423
 30
0.0
  0
SEQEND
  5
144
330
141
100
AcDbEntity
  8
Livello 1
 62
     7
420
 16777215
370
     9
  0
SPLINE
  5
145
330
1F
100
AcDbEntity
  8
Livello 1
 62
     7
420
 16777215
370
     9
100
AcDbSpline
210
0.0
220
0.0
230
1.0
 70
     8
 71
     3
 72
     8
 73
     4
 74
     0
 42
0.0000000001
 43
0.0000000001
 12
1.0
 22
0.0
 32
0.0
 13
1.0
 23
0.0
 33
0.0
 40
0.0
 40
0.0
 40
0.0
 40
0.0
 40
1.0
 40
1.0
 40
1.0
 40
1.0
 10
92.3869590319012
 20
-58.42331609650506
 30
0.0
 10
92.95538985073266
 20
-58.46430887427273
 30
0.0
 10
93.37808817328205
 20
-58.0415752632673
 30
0.0
 10
93.3369190076657
 20
-57.47349720785366
 30
0.0
  0
SPLINE
  5
146
330
1F
100
AcDbEntity
  8
Livello 1
 62
     7
420
 16777215
370
     9
100
AcDbSpline
210
0.0
220
0.0
230
1.0
 70
     8
 71
     3
 72
     8
 73
     4
 74
     0
 42
0.0000000001
 43
0.0000000001
 12
1.0
 22
0.0
 32
0.0
 13
1.0
 23
0.0
 33
0.0
 40
0.0
 40
0.0
 40
0.0
 40
0.0
 40
1.0
 40
1.0
 40
1.0
 40
1.0
 10
93.3369190076657
 20
-24.09429888286516
 30
0.0
 10
93.37808817328205
 20
-23.52657360522961
 30
0.0
 10
92.95538985073266
 20
-23.10316971644649
 30
0.0
 10
92.3869590319012
 20
-23.14500916088041
 30
0.0
  0
POLYLINE
  5
147
330
1F
100
AcDbEntity
  8
Livello 1
 62
     7
420
 16777215
370
     9
100
AcDb2dPolyline
 66
     1
 10
0.0
 20
0.0
 30
0.0
  0
VERTEX
  5
148
330
147
100
AcDbEntity
  8
Livello 1
 62
     7
420
 16777215
370
     9
100
AcDbVertex
100
AcDb2dVertex
 10
37.2680079381028
 20
-58.42331609650506
 30
0.0
  0
VERTEX
  5
149
330
147
100
AcDbEntity
  8
Livello 1
 62
     7
420
 16777215
370
     9
100
AcDbVertex
100
AcDb2dVertex
 10
92.3869590319012
 20
-58.42331609650506
 30
0.0
  0
SEQEND
  5
14A
330
147
100
AcDbEntity
  8
Livello 1
 62
     7
420
 16777215
370
     9
  0
POLYLINE
  5
14B
330
1F
100
AcDbEntity
  8
Livello 1
 62
     7
420
 16777215
370
     9
100
AcDb2dPolyline
 66
     1
 10
0.0
 20
0.0
 30
0.0
  0
VERTEX
  5
14C
330
14B
100
AcDbEntity
  8
Livello 1
 62
     7
420
 16777215
370
     9
100
AcDbVertex
100
AcDb2dVertex
 10
37.2680079381028
 20
-23.14500916088041
 30
0.0
  0
VERTEX
  5
14D
330
14B
100
AcDbEntity
  8
Livello 1
 62
     7
420
 16777215
370
     9
100
AcDbVertex
100
AcDb2dVertex
 10
39.82236592849125
 20
-25.69989638246379
 30
0.0
  0
SEQEND
  5
14E
330
14B
100
AcDbEntity
  8
Livello 1
 62
     7
420
 16777215
370
     9
  0
POLYLINE
  5
14F
330
1F
100
AcDbEntity
  8
Livello 1
 62
     7
420
 16777215
370
     9
100
AcDb2dPolyline
 66
     1
 10
0.0
 20
0.0
 30
0.0
  0
VERTEX
  5
150
330
14F
100
AcDbEntity
  8
Livello 1
 62
     7
420
 16777215
370
     9
100
AcDbVertex
100
AcDb2dVertex
 10
92.3869590319012
 20
-23.14500916088041
 30
0.0
  0
VERTEX
  5
151
330
14F
100
AcDbEntity
  8
Livello 1
 62
     7
420
 16777215
370
     9
100
AcDbVertex
100
AcDb2dVertex
 10
37.2680079381028
 20
-23.14500916088041
 30
0.0
  0
SEQEND
  5
152
330
14F
100
AcDbEntity
  8
Livello 1
 62
     7
420
 16777215
370
     9
  0
POLYLINE
  5
153
330
1F
100
AcDbEntity
  8
Livello 1
 62
     7
420
 16777215
370
     9
100
AcDb2dPolyline
 66
     1
 10
0.0
 20
0.0
 30
0.0
  0
VERTEX
  5
154
330
153
100
AcDbEntity
  8
Livello 1
 62
     7
420
 16777215
370
     9
100
AcDbVertex
100
AcDb2dVertex
 10
36.31836546233019
 20
-57.47349720785366
 30
0.0
  0
VERTEX
  5
155
330
153
100
AcDbEntity
  8
Livello 1
 62
     7
420
 16777215
370
     9
100
AcDbVertex
100
AcDb2dVertex
 10
38.87325261937149
 20
-54.91793970849259
 30
0.0
  0
SEQEND
  5
156
330
153
100
AcDbEntity
  8
Livello 1
 62
     7
420
 16777215
370
     9
  0
SPLINE
  5
157
330
1F
100
AcDbEntity
  8
Livello 1
 62
     7
420
 16777215
370
     9
100
AcDbSpline
210
0.0
220
0.0
230
1.0
 70
     8
 71
     3
 72
     8
 73
     4
 74
     0
 42
0.0000000001
 43
0.0000000001
 12
1.0
 22
0.0
 32
0.0
 13
1.0
 23
0.0
 33
0.0
 40
0.0
 40
0.0
 40
0.0
 40
0.0
 40
1.0
 40
1.0
 40
1.0
 40
1.0
 10
36.31836546233019
 20
-57.47349720785366
 30
0.0
 10
36.27652601895316
 20
-58.0415752632673
 30
0.0
 10
36.69992989704012
 20
-58.46430887427273
 30
0.0
 10
37.2680079381028
 20
-58.42331609650506
 30
0.0
  0
SPLINE
  5
158
330
1F
100
AcDbEntity
  8
Livello 1
 62
     7
420
 16777215
370
     9
100
AcDbSpline
210
0.0
220
0.0
230
1.0
 70
     8
 71
     3
 72
     8
 73
     4
 74
     0
 42
0.0000000001
 43
0.0000000001
 12
1.0
 22
0.0
 32
0.0
 13
1.0
 23
0.0
 33
0.0
 40
0.0
 40
0.0
 40
0.0
 40
0.0
 40
1.0
 40
1.0
 40
1.0
 40
1.0
 10
37.2680079381028
 20
-23.14500916088041
 30
0.0
 10
36.69992989704012
 20
-23.10316971644649
 30
0.0
 10
36.27652601895316
 20
-23.52657360522961
 30
0.0
 10
36.31836546233019
 20
-24.09429888286516
 30
0.0
  0
POLYLINE
  5
159
330
1F
100
AcDbEntity
  8
Livello 1
 62
     7
420
 16777215
370
     9
100
AcDb2dPolyline
 66
     1
 10
0.0
 20
0.0
 30
0.0
  0
VERTEX
  5
15A
330
159
100
AcDbEntity
  8
Livello 1
 62
     7
420
 16777215
370
     9
100
AcDbVertex
100
AcDb2dVertex
 10
36.31836546233019
 20
-24.09429888286516
 30
0.0
  0
VERTEX
  5
15B
330
159
100
AcDbEntity
  8
Livello 1
 62
     7
420
 16777215
370
     9
100
AcDbVertex
100
AcDb2dVertex
 10
36.31836546233019
 20
-57.47349720785366
 30
0.0
  0
SEQEND
  5
15C
330
159
100
AcDbEntity
  8
Livello 1
 62
     7
420
 16777215
370
     9
  0
POLYLINE
  5
15D
330
1F
100
AcDbEntity
  8
Livello 1
 62
     7
420
 16777215
370
     9
100
AcDb2dPolyline
 66
     1
 10
0.0
 20
0.0
 30
0.0
  0
VERTEX
  5
15E
330
15D
100
AcDbEntity
  8
Livello 1
 62
     7
420
 16777215
370
     9
100
AcDbVertex
100
AcDb2dVertex
 10
36.31836546233019
 20
-57.47349720785366
 30
0.0
  0
VERTEX
  5
15F
330
15D
100
AcDbEntity
  8
Livello 1
 62
     7
420
 16777215
370
     9
100
AcDbVertex
100
AcDb2dVertex
 10
35.74803054661842
 20
-57.47349720785366
 30
0.0
  0
SEQEND
  5
160
330
15D
100
AcDbEntity
  8
Livello 1
 62
     7
420
 16777215
370
     9
  0
POLYLINE
  5
161
330
1F
100
AcDbEntity
  8
Livello 1
 62
     7
420
 16777215
370
     9
100
AcDb2dPolyline
 66
     1
 10
0.0
 20
0.0
 30
0.0
  0
VERTEX
  5
162
330
161
100
AcDbEntity
  8
Livello 1
 62
     7
420
 16777215
370
     9
100
AcDbVertex
100
AcDb2dVertex
 10
35.74803054661842
 20
-24.09429888286516
 30
0.0
  0
VERTEX
  5
163
330
161
100
AcDbEntity
  8
Livello 1
 62
     7
420
 16777215
370
     9
100
AcDbVertex
100
AcDb2dVertex
 10
36.31836546233019
 20
-24.09429888286516
 30
0.0
  0
SEQEND
  5
164
330
161
100
AcDbEntity
  8
Livello 1
 62
     7
420
 16777215
370
     9
  0
POLYLINE
  5
165
330
1F
100
AcDbEntity
  8
Livello 1
 62
     7
420
 16777215
370
     9
100
AcDb2dPolyline
 66
     1
 10
0.0
 20
0.0
 30
0.0
  0
VERTEX
  5
166
330
165
100
AcDbEntity
  8
Livello 1
 62
     7
420
 16777215
370
     9
100
AcDbVertex
100
AcDb2dVertex
 10
37.2680079381028
 20
-58.42331609650506
 30
0.0
  0
VERTEX
  5
167
330
165
100
AcDbEntity
  8
Livello 1
 62
     7
420
 16777215
370
     9
100
AcDbVertex
100
AcDb2dVertex
 10
37.2680079381028
 20
-58.99245248525198
 30
0.0
  0
SEQEND
  5
168
330
165
100
AcDbEntity
  8
Livello 1
 62
     7
420
 16777215
370
     9
  0
POLYLINE
  5
169
330
1F
100
AcDbEntity
  8
Livello 1
 62
     7
420
 16777215
370
     9
100
AcDb2dPolyline
 66
     1
 10
0.0
 20
0.0
 30
0.0
  0
VERTEX
  5
16A
330
169
100
AcDbEntity
  8
Livello 1
 62
     7
420
 16777215
370
     9
100
AcDbVertex
100
AcDb2dVertex
 10
37.2680079381028
 20
-22.57502610546724
 30
0.0
  0
VERTEX
  5
16B
330
169
100
AcDbEntity
  8
Livello 1
 62
     7
420
 16777215
370
     9
100
AcDbVertex
100
AcDb2dVertex
 10
37.2680079381028
 20
-23.14500916088041
 30
0.0
  0
SEQEND
  5
16C
330
169
100
AcDbEntity
  8
Livello 1
 62
     7
420
 16777215
370
     9
  0
POLYLINE
  5
16D
330
1F
100
AcDbEntity
  8
Livello 1
 62
     7
420
 16777215
370
     9
100
AcDb2dPolyline
 66
     1
 10
0.0
 20
0.0
 30
0.0
  0
VERTEX
  5
16E
330
16D
100
AcDbEntity
  8
Livello 1
 62
     7
420
 16777215
370
     9
100
AcDbVertex
100
AcDb2dVertex
 10
92.3869590319012
 20
-58.42331609650506
 30
0.0
  0
VERTEX
  5
16F
330
16D
100
AcDbEntity
  8
Livello 1
 62
     7
420
 16777215
370
     9
100
AcDbVertex
100
AcDb2dVertex
 10
92.3869590319012
 20
-58.99245248525198
 30
0.0
  0
SEQEND
  5
170
330
16D
100
AcDbEntity
  8
Livello 1
 62
     7
420
 16777215
370
     9
  0
POLYLINE
  5
171
330
1F
100
AcDbEntity
  8
Livello 1
 62
     7
420
 16777215
370
     9
100
AcDb2dPolyline
 66
     1
 10
0.0
 20
0.0
 30
0.0
  0
VERTEX
  5
172
330
171
100
AcDbEntity
  8
Livello 1
 62
     7
420
 16777215
370
     9
100
AcDbVertex
100
AcDb2dVertex
 10
92.3869590319012
 20
-22.57502610546724
 30
0.0
  0
VERTEX
  5
173
330
171
100
AcDbEntity
  8
Livello 1
 62
     7
420
 16777215
370
     9
100
AcDbVertex
100
AcDb2dVertex
 10
92.3869590319012
 20
-23.14500916088041
 30
0.0
  0
SEQEND
  5
174
330
171
100
AcDbEntity
  8
Livello 1
 62
     7
420
 16777215
370
     9
  0
POLYLINE
  5
175
330
1F
100
AcDbEntity
  8
Livello 1
 62
     7
420
 16777215
370
     9
100
AcDb2dPolyline
 66
     1
 10
0.0
 20
0.0
 30
0.0
  0
VERTEX
  5
176
330
175
100
AcDbEntity
  8
Livello 1
 62
     7
420
 16777215
370
     9
100
AcDbVertex
100
AcDb2dVertex
 10
93.3369190076657
 20
-57.47349720785366
 30
0.0
  0
VERTEX
  5
177
330
175
100
AcDbEntity
  8
Livello 1
 62
     7
420
 16777215
370
     9
100
AcDbVertex
100
AcDb2dVertex
 10
93.9062317709191
 20
-57.47349720785366
 30
0.0
  0
SEQEND
  5
178
330
175
100
AcDbEntity
  8
Livello 1
 62
     7
420
 16777215
370
     9
  0
POLYLINE
  5
179
330
1F
100
AcDbEntity
  8
Livello 1
 62
     7
420
 16777215
370
     9
100
AcDb2dPolyline
 66
     1
 10
0.0
 20
0.0
 30
0.0
  0
VERTEX
  5
17A
330
179
100
AcDbEntity
  8
Livello 1
 62
     7
420
 16777215
370
     9
100
AcDbVertex
100
AcDb2dVertex
 10
93.9062317709191
 20
-24.09429888286516
 30
0.0
  0
VERTEX
  5
17B
330
179
100
AcDbEntity
  8
Livello 1
 62
     7
420
 16777215
370
     9
100
AcDbVertex
100
AcDb2dVertex
 10
93.3369190076657
 20
-24.09429888286516
 30
0.0
  0
SEQEND
  5
17C
330
179
100
AcDbEntity
  8
Livello 1
 62
     7
420
 16777215
370
     9
  0
POLYLINE
  5
17D
330
1F
100
AcDbEntity
  8
Livello 1
 62
     7
420
 16777215
370
     9
100
AcDb2dPolyline
 66
     1
 10
0.0
 20
0.0
 30
0.0
  0
VERTEX
  5
17E
330
17D
100
AcDbEntity
  8
Livello 1
 62
     7
420
 16777215
370
     9
100
AcDbVertex
100
AcDb2dVertex
 10
94.2903714833411
 20
-22.19123916111891
 30
0.0
  0
VERTEX
  5
17F
330
17D
100
AcDbEntity
  8
Livello 1
 62
     7
420
 16777215
370
     9
100
AcDbVertex
100
AcDb2dVertex
 10
35.36424270889412
 20
-22.19123916111891
 30
0.0
  0
SEQEND
  5
180
330
17D
100
AcDbEntity
  8
Livello 1
 62
     7
420
 16777215
370
     9
  0
POLYLINE
  5
181
330
1F
100
AcDbEntity
  8
Livello 1
 62
     7
420
 16777215
370
     9
100
AcDb2dPolyline
 66
     1
 10
0.0
 20
0.0
 30
0.0
  0
VERTEX
  5
182
330
181
100
AcDbEntity
  8
Livello 1
 62
     7
420
 16777215
370
     9
100
AcDbVertex
100
AcDb2dVertex
 10
35.36424270889412
 20
-22.19123916111891
 30
0.0
  0
VERTEX
  5
183
330
181
100
AcDbEntity
  8
Livello 1
 62
     7
420
 16777215
370
     9
100
AcDbVertex
100
AcDb2dVertex
 10
35.36424270889412
 20
-59.37620415182248
 30
0.0
  0
SEQEND
  5
184
330
181
100
AcDbEntity
  8
Livello 1
 62
     7
420
 16777215
370
     9
  0
POLYLINE
  5
185
330
1F
100
AcDbEntity
  8
Livello 1
 62
     7
420
 16777215
370
     9
100
AcDb2dPolyline
 66
     1
 10
0.0
 20
0.0
 30
0.0
  0
VERTEX
  5
186
330
185
100
AcDbEntity
  8
Livello 1
 62
     7
420
 16777215
370
     9
100
AcDbVertex
100
AcDb2dVertex
 10
94.2903714833411
 20
-59.37620415182248
 30
0.0
  0
VERTEX
  5
187
330
185
100
AcDbEntity
  8
Livello 1
 62
     7
420
 16777215
370
     9
100
AcDbVertex
100
AcDb2dVertex
 10
94.2903714833411
 20
-22.19123916111891
 30
0.0
  0
SEQEND
  5
188
330
185
100
AcDbEntity
  8
Livello 1
 62
     7
420
 16777215
370
     9
  0
POLYLINE
  5
189
330
1F
100
AcDbEntity
  8
Livello 1
 62
     7
420
 16777215
370
     9
100
AcDb2dPolyline
 66
     1
 10
0.0
 20
0.0
 30
0.0
  0
VERTEX
  5
18A
330
189
100
AcDbEntity
  8
Livello 1
 62
     7
420
 16777215
370
     9
100
AcDbVertex
100
AcDb2dVertex
 10
35.36424270889412
 20
-59.37620415182248
 30
0.0
  0
VERTEX
  5
18B
330
189
100
AcDbEntity
  8
Livello 1
 62
     7
420
 16777215
370
     9
100
AcDbVertex
100
AcDb2dVertex
 10
94.2903714833411
 20
-59.37620415182248
 30
0.0
  0
SEQEND
  5
18C
330
189
100
AcDbEntity
  8
Livello 1
 62
     7
420
 16777215
370
     9
  0
POLYLINE
  5
18D
330
1F
100
AcDbEntity
  8
Livello 1
 62
     7
420
 16777215
370
     9
100
AcDb2dPolyline
 66
     1
 10
0.0
 20
0.0
 30
0.0
  0
VERTEX
  5
18E
330
18D
100
AcDbEntity
  8
Livello 1
 62
     7
420
 16777215
370
     9
100
AcDbVertex
100
AcDb2dVertex
 10
35.36424270889412
 20
-22.19123916111891
 30
0.0
  0
VERTEX
  5
18F
330
18D
100
AcDbEntity
  8
Livello 1
 62
     7
420
 16777215
370
     9
100
AcDbVertex
100
AcDb2dVertex
 10
34.75810082464375
 20
-22.19123916111891
 30
0.0
  0
SEQEND
  5
190
330
18D
100
AcDbEntity
  8
Livello 1
 62
     7
420
 16777215
370
     9
  0
POLYLINE
  5
191
330
1F
100
AcDbEntity
  8
Livello 1
 62
     7
420
 16777215
370
     9
100
AcDb2dPolyline
 66
     1
 10
0.0
 20
0.0
 30
0.0
  0
VERTEX
  5
192
330
191
100
AcDbEntity
  8
Livello 1
 62
     7
420
 16777215
370
     9
100
AcDbVertex
100
AcDb2dVertex
 10
35.36424270889412
 20
-21.58523749460362
 30
0.0
  0
VERTEX
  5
193
330
191
100
AcDbEntity
  8
Livello 1
 62
     7
420
 16777215
370
     9
100
AcDbVertex
100
AcDb2dVertex
 10
94.2903714833411
 20
-21.58523749460362
 30
0.0
  0
SEQEND
  5
194
330
191
100
AcDbEntity
  8
Livello 1
 62
     7
420
 16777215
370
     9
  0
POLYLINE
  5
195
330
1F
100
AcDbEntity
  8
Livello 1
 62
     7
420
 16777215
370
     9
100
AcDb2dPolyline
 66
     1
 10
0.0
 20
0.0
 30
0.0
  0
VERTEX
  5
196
330
195
100
AcDbEntity
  8
Livello 1
 62
     7
420
 16777215
370
     9
100
AcDbVertex
100
AcDb2dVertex
 10
35.36424270889412
 20
-21.58523749460362
 30
0.0
  0
VERTEX
  5
197
330
195
100
AcDbEntity
  8
Livello 1
 62
     7
420
 16777215
370
     9
100
AcDbVertex
100
AcDb2dVertex
 10
35.36424270889412
 20
-22.19123916111891
 30
0.0
  0
SEQEND
  5
198
330
195
100
AcDbEntity
  8
Livello 1
 62
     7
420
 16777215
370
     9
  0
SPLINE
  5
199
330
1F
100
AcDbEntity
  8
Livello 1
 62
     7
420
 16777215
370
     9
100
AcDbSpline
210
0.0
220
0.0
230
1.0
 70
     8
 71
     3
 72
    11
 73
     7
 74
     0
 42
0.0000000001
 43
0.0000000001
 12
1.0
 22
0.0
 32
0.0
 13
1.0
 23
0.0
 33
0.0
 40
0.0
 40
0.0
 40
0.0
 40
0.0
 40
1.0
 40
1.0
 40
1.0
 40
2.0
 40
2.0
 40
2.0
 40
2.0
 10
35.36424270889412
 20
-21.58523749460362
 30
0.0
 10
35.029563324576
 20
-21.58523749460362
 30
0.0
 10
34.75810082464375
 20
-21.85655888342483
 30
0.0
 10
34.75810082464375
 20
-22.19123916111891
 30
0.0
 10
34.75810082464375
 20
-22.19123916111891
 30
0.0
 10
34.75810082464375
 20
-22.19123916111891
 30
0.0
 10
34.75810082464375
 20
-22.19123916111891
 30
0.0
  0
POLYLINE
  5
19A
330
1F
100
AcDbEntity
  8
Livello 1
 62
     7
420
 16777215
370
     9
100
AcDb2dPolyline
 66
     1
 10
0.0
 20
0.0
 30
0.0
  0
VERTEX
  5
19B
330
19A
100
AcDbEntity
  8
Livello 1
 62
     7
420
 16777215
370
     9
100
AcDbVertex
100
AcDb2dVertex
 10
94.89722219849791
 20
-22.19123916111891
 30
0.0
  0
VERTEX
  5
19C
330
19A
100
AcDbEntity
  8
Livello 1
 62
     7
420
 16777215
370
     9
100
AcDbVertex
100
AcDb2dVertex
 10
94.89722219849791
 20
-59.37620415182248
 30
0.0
  0
SEQEND
  5
19D
330
19A
100
AcDbEntity
  8
Livello 1
 62
     7
420
 16777215
370
     9
  0
POLYLINE
  5
19E
330
1F
100
AcDbEntity
  8
Livello 1
 62
     7
420
 16777215
370
     9
100
AcDb2dPolyline
 66
     1
 10
0.0
 20
0.0
 30
0.0
  0
VERTEX
  5
19F
330
19E
100
AcDbEntity
  8
Livello 1
 62
     7
420
 16777215
370
     9
100
AcDbVertex
100
AcDb2dVertex
 10
94.89722219849791
 20
-22.19123916111891
 30
0.0
  0
VERTEX
  5
1A0
330
19E
100
AcDbEntity
  8
Livello 1
 62
     7
420
 16777215
370
     9
100
AcDbVertex
100
AcDb2dVertex
 10
94.2903714833411
 20
-22.19123916111891
 30
0.0
  0
SEQEND
  5
1A1
330
19E
100
AcDbEntity
  8
Livello 1
 62
     7
420
 16777215
370
     9
  0
POLYLINE
  5
1A2
330
1F
100
AcDbEntity
  8
Livello 1
 62
     7
420
 16777215
370
     9
100
AcDb2dPolyline
 66
     1
 10
0.0
 20
0.0
 30
0.0
  0
VERTEX
  5
1A3
330
1A2
100
AcDbEntity
  8
Livello 1
 62
     7
420
 16777215
370
     9
100
AcDbVertex
100
AcDb2dVertex
 10
94.2903714833411
 20
-22.19123916111891
 30
0.0
  0
VERTEX
  5
1A4
330
1A2
100
AcDbEntity
  8
Livello 1
 62
     7
420
 16777215
370
     9
100
AcDbVertex
100
AcDb2dVertex
 10
94.2903714833411
 20
-21.58523749460362
 30
0.0
  0
SEQEND
  5
1A5
330
1A2
100
AcDbEntity
  8
Livello 1
 62
     7
420
 16777215
370
     9
  0
SPLINE
  5
1A6
330
1F
100
AcDbEntity
  8
Livello 1
 62
     7
420
 16777215
370
     9
100
AcDbSpline
210
0.0
220
0.0
230
1.0
 70
     8
 71
     3
 72
    11
 73
     7
 74
     0
 42
0.0000000001
 43
0.0000000001
 12
1.0
 22
0.0
 32
0.0
 13
1.0
 23
0.0
 33
0.0
 40
0.0
 40
0.0
 40
0.0
 40
0.0
 40
1.0
 40
1.0
 40
1.0
 40
2.0
 40
2.0
 40
2.0
 40
2.0
 10
94.89722219849791
 20
-22.19123916111891
 30
0.0
 10
94.89722219849791
 20
-21.85655888342483
 30
0.0
 10
94.62505175258048
 20
-21.58523749460362
 30
0.0
 10
94.2903714833411
 20
-21.58523749460362
 30
0.0
 10
94.2903714833411
 20
-21.58523749460362
 30
0.0
 10
94.2903714833411
 20
-21.58523749460362
 30
0.0
 10
94.2903714833411
 20
-21.58523749460362
 30
0.0
  0
POLYLINE
  5
1A7
330
1F
100
AcDbEntity
  8
Livello 1
 62
     7
420
 16777215
370
     9
100
AcDb2dPolyline
 66
     1
 10
0.0
 20
0.0
 30
0.0
  0
VERTEX
  5
1A8
330
1A7
100
AcDbEntity
  8
Livello 1
 62
     7
420
 16777215
370
     9
100
AcDbVertex
100
AcDb2dVertex
 10
94.2903714833411
 20
-59.98291137389329
 30
0.0
  0
VERTEX
  5
1A9
330
1A7
100
AcDbEntity
  8
Livello 1
 62
     7
420
 16777215
370
     9
100
AcDbVertex
100
AcDb2dVertex
 10
35.36424270889412
 20
-59.98291137389329
 30
0.0
  0
SEQEND
  5
1AA
330
1A7
100
AcDbEntity
  8
Livello 1
 62
     7
420
 16777215
370
     9
  0
POLYLINE
  5
1AB
330
1F
100
AcDbEntity
  8
Livello 1
 62
     7
420
 16777215
370
     9
100
AcDb2dPolyline
 66
     1
 10
0.0
 20
0.0
 30
0.0
  0
VERTEX
  5
1AC
330
1AB
100
AcDbEntity
  8
Livello 1
 62
     7
420
 16777215
370
     9
100
AcDbVertex
100
AcDb2dVertex
 10
94.2903714833411
 20
-59.98291137389329
 30
0.0
  0
VERTEX
  5
1AD
330
1AB
100
AcDbEntity
  8
Livello 1
 62
     7
420
 16777215
370
     9
100
AcDbVertex
100
AcDb2dVertex
 10
94.2903714833411
 20
-59.37620415182248
 30
0.0
  0
SEQEND
  5
1AE
330
1AB
100
AcDbEntity
  8
Livello 1
 62
     7
420
 16777215
370
     9
  0
POLYLINE
  5
1AF
330
1F
100
AcDbEntity
  8
Livello 1
 62
     7
420
 16777215
370
     9
100
AcDb2dPolyline
 66
     1
 10
0.0
 20
0.0
 30
0.0
  0
VERTEX
  5
1B0
330
1AF
100
AcDbEntity
  8
Livello 1
 62
     7
420
 16777215
370
     9
100
AcDbVertex
100
AcDb2dVertex
 10
94.2903714833411
 20
-59.37620415182248
 30
0.0
  0
VERTEX
  5
1B1
330
1AF
100
AcDbEntity
  8
Livello 1
 62
     7
420
 16777215
370
     9
100
AcDbVertex
100
AcDb2dVertex
 10
94.89722219849791
 20
-59.37620415182248
 30
0.0
  0
SEQEND
  5
1B2
330
1AF
100
AcDbEntity
  8
Livello 1
 62
     7
420
 16777215
370
     9
  0
SPLINE
  5
1B3
330
1F
100
AcDbEntity
  8
Livello 1
 62
     7
420
 16777215
370
     9
100
AcDbSpline
210
0.0
220
0.0
230
1.0
 70
     8
 71
     3
 72
    11
 73
     7
 74
     0
 42
0.0000000001
 43
0.0000000001
 12
1.0
 22
0.0
 32
0.0
 13
1.0
 23
0.0
 33
0.0
 40
0.0
 40
0.0
 40
0.0
 40
0.0
 40
1.0
 40
1.0
 40
1.0
 40
2.0
 40
2.0
 40
2.0
 40
2.0
 10
94.2903714833411
 20
-59.98291137389329
 30
0.0
 10
94.62505175258048
 20
-59.98291137389329
 30
0.0
 10
94.89722219849791
 20
-59.71141359618352
 30
0.0
 10
94.89722219849791
 20
-59.37620415182248
 30
0.0
 10
94.89722219849791
 20
-59.37620415182248
 30
0.0
 10
94.89722219849791
 20
-59.37620415182248
 30
0.0
 10
94.89722219849791
 20
-59.37620415182248
 30
0.0
  0
POLYLINE
  5
1B4
330
1F
100
AcDbEntity
  8
Livello 1
 62
     7
420
 16777215
370
     9
100
AcDb2dPolyline
 66
     1
 10
0.0
 20
0.0
 30
0.0
  0
VERTEX
  5
1B5
330
1B4
100
AcDbEntity
  8
Livello 1
 62
     7
420
 16777215
370
     9
100
AcDbVertex
100
AcDb2dVertex
 10
34.75810082464375
 20
-59.37620415182248
 30
0.0
  0
VERTEX
  5
1B6
330
1B4
100
AcDbEntity
  8
Livello 1
 62
     7
420
 16777215
370
     9
100
AcDbVertex
100
AcDb2dVertex
 10
34.75810082464375
 20
-22.19123916111891
 30
0.0
  0
SEQEND
  5
1B7
330
1B4
100
AcDbEntity
  8
Livello 1
 62
     7
420
 16777215
370
     9
  0
POLYLINE
  5
1B8
330
1F
100
AcDbEntity
  8
Livello 1
 62
     7
420
 16777215
370
     9
100
AcDb2dPolyline
 66
     1
 10
0.0
 20
0.0
 30
0.0
  0
VERTEX
  5
1B9
330
1B8
100
AcDbEntity
  8
Livello 1
 62
     7
420
 16777215
370
     9
100
AcDbVertex
100
AcDb2dVertex
 10
35.36424270889412
 20
-59.37620415182248
 30
0.0
  0
VERTEX
  5
1BA
330
1B8
100
AcDbEntity
  8
Livello 1
 62
     7
420
 16777215
370
     9
100
AcDbVertex
100
AcDb2dVertex
 10
35.36424270889412
 20
-59.98291137389329
 30
0.0
  0
SEQEND
  5
1BB
330
1B8
100
AcDbEntity
  8
Livello 1
 62
     7
420
 16777215
370
     9
  0
POLYLINE
  5
1BC
330
1F
100
AcDbEntity
  8
Livello 1
 62
     7
420
 16777215
370
     9
100
AcDb2dPolyline
 66
     1
 10
0.0
 20
0.0
 30
0.0
  0
VERTEX
  5
1BD
330
1BC
100
AcDbEntity
  8
Livello 1
 62
     7
420
 16777215
370
     9
100
AcDbVertex
100
AcDb2dVertex
 10
34.75810082464375
 20
-59.37620415182248
 30
0.0
  0
VERTEX
  5
1BE
330
1BC
100
AcDbEntity
  8
Livello 1
 62
     7
420
 16777215
370
     9
100
AcDbVertex
100
AcDb2dVertex
 10
35.36424270889412
 20
-59.37620415182248
 30
0.0
  0
SEQEND
  5
1BF
330
1BC
100
AcDbEntity
  8
Livello 1
 62
     7
420
 16777215
370
     9
  0
SPLINE
  5
1C0
330
1F
100
AcDbEntity
  8
Livello 1
 62
     7
420
 16777215
370
     9
100
AcDbSpline
210
0.0
220
0.0
230
1.0
 70
     8
 71
     3
 72
    11
 73
     7
 74
     0
 42
0.0000000001
 43
0.0000000001
 12
1.0
 22
0.0
 32
0.0
 13
1.0
 23
0.0
 33
0.0
 40
0.0
 40
0.0
 40
0.0
 40
0.0
 40
1.0
 40
1.0
 40
1.0
 40
2.0
 40
2.0
 40
2.0
 40
2.0
 10
34.75810082464375
 20
-59.37620415182248
 30
0.0
 10
34.75810082464375
 20
-59.71141359618352
 30
0.0
 10
35.029563324576
 20
-59.98291137389329
 30
0.0
 10
35.36424270889412
 20
-59.98291137389329
 30
0.0
 10
35.36424270889412
 20
-59.98291137389329
 30
0.0
 10
35.36424270889412
 20
-59.98291137389329
 30
0.0
 10
35.36424270889412
 20
-59.98291137389329
 30
0.0
  0
MTEXT
  5
1C1
330
1F
100
AcDbEntity
  8
Livello 1
 62
     7
420
 16777215
100
AcDbMText
 10
56.20793862527093
 20
-20.17292752291426
 30
0.0
 40
2.247899999438025
 41
0.0
 46
0.0
 71
     7
 72
     1
  1
\fHelvetica|b0|i0|c0|p34;\W1;A
 73
     1
 44
1.0
  0
MTEXT
  5
1C2
330
1F
100
AcDbEntity
  8
Livello 1
 62
     7
420
 16777215
100
AcDbMText
 10
55.3704359128067
 20
-63.91444665317609
 30
0.0
 40
2.247899999438025
 41
0.0
 46
0.0
 71
     7
 72
     1
  1
\fHelvetica|b0|i0|c0|p34;\W1;A
 73
     1
 44
1.0
  0
POLYLINE
  5
1C3
330
1F
100
AcDbEntity
  8
Livello 1
 62
     7
420
 16777215
370
     9
100
AcDb2dPolyline
 66
     1
 10
0.0
 20
0.0
 30
0.0
  0
VERTEX
  5
1C4
330
1C3
100
AcDbEntity
  8
Livello 1
 62
     7
420
 16777215
370
     9
100
AcDbVertex
100
AcDb2dVertex
 10
58.75351461218408
 20
-19.1728019396513
 30
0.0
  0
VERTEX
  5
1C5
330
1C3
100
AcDbEntity
  8
Livello 1
 62
     7
420
 16777215
370
     9
100
AcDbVertex
100
AcDb2dVertex
 10
64.97242223130398
 20
-19.1728019396513
 30
0.0
  0
SEQEND
  5
1C6
330
1C3
100
AcDbEntity
  8
Livello 1
 62
     7
420
 16777215
370
     9
  0
POLYLINE
  5
1C7
330
1F
100
AcDbEntity
  8
Livello 1
 62
     7
420
 16777215
370
     9
100
AcDb2dPolyline
 66
     1
 10
0.0
 20
0.0
 30
0.0
  0
VERTEX
  5
1C8
330
1C7
100
AcDbEntity
  8
Livello 1
 62
     7
420
 16777215
370
     9
100
AcDbVertex
100
AcDb2dVertex
 10
61.21625621602097
 20
-19.97501860611721
 30
0.0
  0
VERTEX
  5
1C9
330
1C7
100
AcDbEntity
  8
Livello 1
 62
     7
420
 16777215
370
     9
100
AcDbVertex
100
AcDb2dVertex
 10
61.21625621602097
 20
-18.37062055096291
 30
0.0
  0
VERTEX
  5
1CA
330
1C7
100
AcDbEntity
  8
Livello 1
 62
     7
420
 16777215
370
     9
100
AcDbVertex
100
AcDb2dVertex
 10
64.97242223130398
 20
-19.1728019396513
 30
0.0
  0
VERTEX
  5
1CB
330
1C7
100
AcDbEntity
  8
Livello 1
 62
     7
420
 16777215
370
     9
100
AcDbVertex
100
AcDb2dVertex
 10
61.21625621602097
 20
-19.97501860611721
 30
0.0
  0
SEQEND
  5
1CD
330
1C7
100
AcDbEntity
  8
Livello 1
 62
     7
420
 16777215
370
     9
  0
HATCH
  5
1CC
330
1F
100
AcDbEntity
  8
Livello 1
 62
     7
420
 16777215
100
AcDbHatch
 10
0.0
 20
0.0
 30
0.0
210
0.0
220
0.0
230
1.0
  2
SOLID
 70
     1
 71
     0
 91
        1
 92
        1
 93
        3
 72
     1
 10
61.21625621602097
 20
-19.97501860611721
 11
61.21625621602097
 21
-18.37062055096291
 72
     1
 10
61.21625621602097
 20
-18.37062055096291
 11
64.97242223130398
 21
-19.1728019396513
 72
     1
 10
64.97242223130398
 20
-19.1728019396513
 11
61.21625621602097
 21
-19.97501860611721
 97
        0
 75
     2
 76
     1
 98
        0
  0
POLYLINE
  5
1CE
330
1F
100
AcDbEntity
  8
Livello 1
 62
     7
420
 16777215
370
     9
100
AcDb2dPolyline
 66
     1
 10
0.0
 20
0.0
 30
0.0
  0
VERTEX
  5
1CF
330
1CE
100
AcDbEntity
  8
Livello 1
 62
     7
420
 16777215
370
     9
100
AcDbVertex
100
AcDb2dVertex
 10
58.213835181508
 20
-62.75105276209016
 30
0.0
  0
VERTEX
  5
1D0
330
1CE
100
AcDbEntity
  8
Livello 1
 62
     7
420
 16777215
370
     9
100
AcDbVertex
100
AcDb2dVertex
 10
64.97242223130398
 20
-62.75105276209016
 30
0.0
  0
SEQEND
  5
1D1
330
1CE
100
AcDbEntity
  8
Livello 1
 62
     7
420
 16777215
370
     9
  0
POLYLINE
  5
1D2
330
1F
100
AcDbEntity
  8
Livello 1
 62
     7
420
 16777215
370
     9
100
AcDb2dPolyline
 66
     1
 10
0.0
 20
0.0
 30
0.0
  0
VERTEX
  5
1D3
330
1D2
100
AcDbEntity
  8
Livello 1
 62
     7
420
 16777215
370
     9
100
AcDbVertex
100
AcDb2dVertex
 10
61.21625621602097
 20
-63.55305776188968
 30
0.0
  0
VERTEX
  5
1D4
330
1D2
100
AcDbEntity
  8
Livello 1
 62
     7
420
 16777215
370
     9
100
AcDbVertex
100
AcDb2dVertex
 10
61.21625621602097
 20
-61.94865970673537
 30
0.0
  0
VERTEX
  5
1D5
330
1D2
100
AcDbEntity
  8
Livello 1
 62
     7
420
 16777215
370
     9
100
AcDbVertex
100
AcDb2dVertex
 10
64.97242223130398
 20
-62.75105276209016
 30
0.0
  0
VERTEX
  5
1D6
330
1D2
100
AcDbEntity
  8
Livello 1
 62
     7
420
 16777215
370
     9
100
AcDbVertex
100
AcDb2dVertex
 10
61.21625621602097
 20
-63.55305776188968
 30
0.0
  0
SEQEND
  5
1D8
330
1D2
100
AcDbEntity
  8
Livello 1
 62
     7
420
 16777215
370
     9
  0
HATCH
  5
1D7
330
1F
100
AcDbEntity
  8
Livello 1
 62
     7
420
 16777215
100
AcDbHatch
 10
0.0
 20
0.0
 30
0.0
210
0.0
220
0.0
230
1.0
  2
SOLID
 70
     1
 71
     0
 91
        1
 92
        1
 93
        3
 72
     1
 10
61.21625621602097
 20
-63.55305776188968
 11
61.21625621602097
 21
-61.94865970673537
 72
     1
 10
61.21625621602097
 20
-61.94865970673537
 11
64.97242223130398
 21
-62.75105276209016
 72
     1
 10
64.97242223130398
 20
-62.75105276209016
 11
61.21625621602097
 21
-63.55305776188968
 97
        0
 75
     2
 76
     1
 98
        0
  0
POLYLINE
  5
1D9
330
1F
100
AcDbEntity
  8
Livello 1
 62
     7
420
 16777215
370
     9
100
AcDb2dPolyline
 66
     1
 10
0.0
 20
0.0
 30
0.0
  0
VERTEX
  5
1DA
330
1D9
100
AcDbEntity
  8
Livello 1
 62
     7
420
 16777215
370
     9
100
AcDbVertex
100
AcDb2dVertex
 10
64.97242223130398
 20
-19.1728019396513
 30
0.0
  0
VERTEX
  5
1DB
330
1D9
100
AcDbEntity
  8
Livello 1
 62
     7
420
 16777215
370
     9
100
AcDbVertex
100
AcDb2dVertex
 10
64.97242223130398
 20
-17.43650027341868
 30
0.0
  0
SEQEND
  5
1DC
330
1D9
100
AcDbEntity
  8
Livello 1
 62
     7
420
 16777215
370
     9
  0
POLYLINE
  5
1DD
330
1F
100
AcDbEntity
  8
Livello 1
 62
     7
420
 16777215
370
     9
100
AcDb2dPolyline
 66
     1
 10
0.0
 20
0.0
 30
0.0
  0
VERTEX
  5
1DE
330
1DD
100
AcDbEntity
  8
Livello 1
 62
     7
420
 16777215
370
     9
100
AcDbVertex
100
AcDb2dVertex
 10
64.97242223130398
 20
-62.75105276209016
 30
0.0
  0
VERTEX
  5
1DF
330
1DD
100
AcDbEntity
  8
Livello 1
 62
     7
420
 16777215
370
     9
100
AcDbVertex
100
AcDb2dVertex
 10
64.97242223130398
 20
-65.02685748374351
 30
0.0
  0
SEQEND
  5
1E0
330
1DD
100
AcDbEntity
  8
Livello 1
 62
     7
420
 16777215
370
     9
  0
POLYLINE
  5
1E1
330
1F
100
AcDbEntity
  8
Livello 1
 62
     7
420
 16777215
370
     9
100
AcDb2dPolyline
 66
     1
 10
0.0
 20
0.0
 30
0.0
  0
VERTEX
  5
1E2
330
1E1
100
AcDbEntity
  8
Livello 1
 62
     7
420
 16777215
370
     9
100
AcDbVertex
100
AcDb2dVertex
 10
64.97242223130398
 20
-19.1728019396513
 30
0.0
  0
VERTEX
  5
1E3
330
1E1
100
AcDbEntity
  8
Livello 1
 62
     7
420
 16777215
370
     9
100
AcDbVertex
100
AcDb2dVertex
 10
64.97242223130398
 20
-62.75105276209016
 30
0.0
  0
VERTEX
  5
1E4
330
1E1
100
AcDbEntity
  8
Livello 1
 62
     7
420
 16777215
370
     9
100
AcDbVertex
100
AcDb2dVertex
 10
64.97242223130398
 20
-62.75105276209016
 30
0.0
  0
SEQEND
  5
1E5
330
1E1
100
AcDbEntity
  8
Livello 1
 62
     7
420
 16777215
370
     9
  0
MTEXT
  5
1E6
330
1F
100
AcDbEntity
  8
Livello 1
 62
     7
420
 16777215
100
AcDbMText
 10
73.1891587816159
 20
-74.47676321922803
 30
0.0
 40
2.247899999438025
 41
0.0
 46
0.0
 71
     7
 72
     1
  1
\fHelvetica|b0|i0|c0|p34;\W1;SEZIONE  A-A
 73
     1
 44
1.0
  0
POLYLINE
  5
1E7
330
1F
100
AcDbEntity
  8
Livello 1
370
     0
100
AcDb2dPolyline
 66
     1
 10
0.0
 20
0.0
 30
0.0
  0
VERTEX
  5
1E8
330
1E7
100
AcDbEntity
  8
Livello 1
370
     0
100
AcDbVertex
100
AcDb2dVertex
 10
37.27023043804609
 20
-15.64244888497826
 30
0.0
  0
VERTEX
  5
1E9
330
1E7
100
AcDbEntity
  8
Livello 1
370
     0
100
AcDbVertex
100
AcDb2dVertex
 10
34.86248776906213
 20
-16.04345138487801
 30
0.0
  0
VERTEX
  5
1EA
330
1E7
100
AcDbEntity
  8
Livello 1
370
     0
100
AcDbVertex
100
AcDb2dVertex
 10
34.86248776906213
 20
-16.04345138487801
 30
0.0
  0
VERTEX
  5
1EB
330
1E7
100
AcDbEntity
  8
Livello 1
370
     0
100
AcDbVertex
100
AcDb2dVertex
 10
37.27023043804609
 20
-16.44463027366665
 30
0.0
  0
VERTEX
  5
1EC
330
1E7
100
AcDbEntity
  8
Livello 1
370
     0
100
AcDbVertex
100
AcDb2dVertex
 10
37.27023043804609
 20
-16.44463027366665
 30
0.0
  0
VERTEX
  5
1ED
330
1E7
100
AcDbEntity
  8
Livello 1
370
     0
100
AcDbVertex
100
AcDb2dVertex
 10
37.27023043804609
 20
-15.64244888497826
 30
0.0
  0
VERTEX
  5
1EE
330
1E7
100
AcDbEntity
  8
Livello 1
370
     0
100
AcDbVertex
100
AcDb2dVertex
 10
37.27023043804609
 20
-15.64244888497826
 30
0.0
  0
SEQEND
  5
1F0
330
1E7
100
AcDbEntity
  8
Livello 1
370
     0
  0
HATCH
  5
1EF
330
1F
100
AcDbEntity
  8
Livello 1
 62
     7
420
 16777215
100
AcDbHatch
 10
0.0
 20
0.0
 30
0.0
210
0.0
220
0.0
230
1.0
  2
SOLID
 70
     1
 71
     0
 91
        1
 92
        1
 93
        3
 72
     1
 10
37.27023043804609
 20
-15.64244888497826
 11
34.86248776906213
 21
-16.04345138487801
 72
     1
 10
34.86248776906213
 20
-16.04345138487801
 11
37.27023043804609
 21
-16.44463027366665
 72
     1
 10
37.27023043804609
 20
-16.44463027366665
 11
37.27023043804609
 21
-15.64244888497826
 97
        0
 75
     0
 76
     1
 98
        0
  0
POLYLINE
  5
1F1
330
1F
100
AcDbEntity
  8
Livello 1
370
     0
100
AcDb2dPolyline
 66
     1
 10
0.0
 20
0.0
 30
0.0
  0
VERTEX
  5
1F2
330
1F1
100
AcDbEntity
  8
Livello 1
370
     0
100
AcDbVertex
100
AcDb2dVertex
 10
92.63171624787914
 20
-15.64244888497826
 30
0.0
  0
VERTEX
  5
1F3
330
1F1
100
AcDbEntity
  8
Livello 1
370
     0
100
AcDbVertex
100
AcDb2dVertex
 10
92.63171624787914
 20
-16.44463027366665
 30
0.0
  0
VERTEX
  5
1F4
330
1F1
100
AcDbEntity
  8
Livello 1
370
     0
100
AcDbVertex
100
AcDb2dVertex
 10
92.63171624787914
 20
-16.44463027366665
 30
0.0
  0
VERTEX
  5
1F5
330
1F1
100
AcDbEntity
  8
Livello 1
370
     0
100
AcDbVertex
100
AcDb2dVertex
 10
95.03847201981102
 20
-16.04345138487801
 30
0.0
  0
VERTEX
  5
1F6
330
1F1
100
AcDbEntity
  8
Livello 1
370
     0
100
AcDbVertex
100
AcDb2dVertex
 10
95.03847201981102
 20
-16.04345138487801
 30
0.0
  0
VERTEX
  5
1F7
330
1F1
100
AcDbEntity
  8
Livello 1
370
     0
100
AcDbVertex
100
AcDb2dVertex
 10
92.63171624787914
 20
-15.64244888497826
 30
0.0
  0
VERTEX
  5
1F8
330
1F1
100
AcDbEntity
  8
Livello 1
370
     0
100
AcDbVertex
100
AcDb2dVertex
 10
92.63171624787914
 20
-15.64244888497826
 30
0.0
  0
SEQEND
  5
1FA
330
1F1
100
AcDbEntity
  8
Livello 1
370
     0
  0
HATCH
  5
1F9
330
1F
100
AcDbEntity
  8
Livello 1
 62
     7
420
 16777215
100
AcDbHatch
 10
0.0
 20
0.0
 30
0.0
210
0.0
220
0.0
230
1.0
  2
SOLID
 70
     1
 71
     0
 91
        1
 92
        1
 93
        3
 72
     1
 10
92.63171624787914
 20
-15.64244888497826
 11
92.63171624787914
 21
-16.44463027366665
 72
     1
 10
92.63171624787914
 20
-16.44463027366665
 11
95.03847201981102
 21
-16.04345138487801
 72
     1
 10
95.03847201981102
 20
-16.04345138487801
 11
92.63171624787914
 21
-15.64244888497826
 97
        0
 75
     0
 76
     1
 98
        0
  0
POLYLINE
  5
1FB
330
1F
100
AcDbEntity
  8
Livello 1
 62
     7
420
 16777215
370
     9
100
AcDb2dPolyline
 66
     1
 10
0.0
 20
0.0
 30
0.0
  0
VERTEX
  5
1FC
330
1FB
100
AcDbEntity
  8
Livello 1
 62
     7
420
 16777215
370
     9
100
AcDbVertex
100
AcDb2dVertex
 10
34.86248776906213
 20
-20.72068499481997
 30
0.0
  0
VERTEX
  5
1FD
330
1FB
100
AcDbEntity
  8
Livello 1
 62
     7
420
 16777215
370
     9
100
AcDbVertex
100
AcDb2dVertex
 10
34.86248776906213
 20
-14.62718971856558
 30
0.0
  0
SEQEND
  5
1FE
330
1FB
100
AcDbEntity
  8
Livello 1
 62
     7
420
 16777215
370
     9
  0
POLYLINE
  5
1FF
330
1F
100
AcDbEntity
  8
Livello 1
 62
     7
420
 16777215
370
     9
100
AcDb2dPolyline
 66
     1
 10
0.0
 20
0.0
 30
0.0
  0
VERTEX
  5
200
330
1FF
100
AcDbEntity
  8
Livello 1
 62
     7
420
 16777215
370
     9
100
AcDbVertex
100
AcDb2dVertex
 10
95.03847201981102
 20
-20.72068499481997
 30
0.0
  0
VERTEX
  5
201
330
1FF
100
AcDbEntity
  8
Livello 1
 62
     7
420
 16777215
370
     9
100
AcDbVertex
100
AcDb2dVertex
 10
95.03847201981102
 20
-14.62718971856558
 30
0.0
  0
SEQEND
  5
202
330
1FF
100
AcDbEntity
  8
Livello 1
 62
     7
420
 16777215
370
     9
  0
POLYLINE
  5
203
330
1F
100
AcDbEntity
  8
Livello 1
 62
     7
420
 16777215
370
     9
100
AcDb2dPolyline
 66
     1
 10
0.0
 20
0.0
 30
0.0
  0
VERTEX
  5
204
330
203
100
AcDbEntity
  8
Livello 1
 62
     7
420
 16777215
370
     9
100
AcDbVertex
100
AcDb2dVertex
 10
34.86248776906213
 20
-16.04345138487801
 30
0.0
  0
VERTEX
  5
205
330
203
100
AcDbEntity
  8
Livello 1
 62
     7
420
 16777215
370
     9
100
AcDbVertex
100
AcDb2dVertex
 10
95.03847201981102
 20
-16.04345138487801
 30
0.0
  0
SEQEND
  5
206
330
203
100
AcDbEntity
  8
Livello 1
 62
     7
420
 16777215
370
     9
  0
MTEXT
  5
207
330
1F
100
AcDbEntity
  8
Livello 1
 62
     7
420
 16777215
100
AcDbMText
 10
62.14073756041968
 20
-14.98306342915964
 30
0.0
 40
2.247899999438025
 41
0.0
 46
0.0
 71
     7
 72
     1
  1
\fHelvetica|b0|i0|c0|p34;\W1;600
 73
     1
 44
1.0
  0
POLYLINE
  5
208
330
1F
100
AcDbEntity
  8
Livello 1
370
     0
100
AcDb2dPolyline
 66
     1
 10
0.0
 20
0.0
 30
0.0
  0
VERTEX
  5
209
330
208
100
AcDbEntity
  8
Livello 1
370
     0
100
AcDbVertex
100
AcDb2dVertex
 10
30.78917443674706
 20
-23.9372069384602
 30
0.0
  0
VERTEX
  5
20A
330
208
100
AcDbEntity
  8
Livello 1
370
     0
100
AcDbVertex
100
AcDb2dVertex
 10
31.59170860321321
 20
-23.9372069384602
 30
0.0
  0
VERTEX
  5
20B
330
208
100
AcDbEntity
  8
Livello 1
370
     0
100
AcDbVertex
100
AcDb2dVertex
 10
31.59170860321321
 20
-23.9372069384602
 30
0.0
  0
VERTEX
  5
20C
330
208
100
AcDbEntity
  8
Livello 1
370
     0
100
AcDbVertex
100
AcDb2dVertex
 10
31.19070610331346
 20
-21.53030999461758
 30
0.0
  0
VERTEX
  5
20D
330
208
100
AcDbEntity
  8
Livello 1
370
     0
100
AcDbVertex
100
AcDb2dVertex
 10
31.19070610331346
 20
-21.53030999461758
 30
0.0
  0
VERTEX
  5
20E
330
208
100
AcDbEntity
  8
Livello 1
370
     0
100
AcDbVertex
100
AcDb2dVertex
 10
30.78917443674706
 20
-23.9372069384602
 30
0.0
  0
VERTEX
  5
20F
330
208
100
AcDbEntity
  8
Livello 1
370
     0
100
AcDbVertex
100
AcDb2dVertex
 10
30.78917443674706
 20
-23.9372069384602
 30
0.0
  0
SEQEND
  5
211
330
208
100
AcDbEntity
  8
Livello 1
370
     0
  0
HATCH
  5
210
330
1F
100
AcDbEntity
  8
Livello 1
 62
     7
420
 16777215
100
AcDbHatch
 10
0.0
 20
0.0
 30
0.0
210
0.0
220
0.0
230
1.0
  2
SOLID
 70
     1
 71
     0
 91
        1
 92
        1
 93
        3
 72
     1
 10
30.78917443674706
 20
-23.9372069384602
 11
31.59170860321321
 21
-23.9372069384602
 72
     1
 10
31.59170860321321
 20
-23.9372069384602
 11
31.19070610331346
 21
-21.53030999461758
 72
     1
 10
31.19070610331346
 20
-21.53030999461758
 11
30.78917443674706
 21
-23.9372069384602
 97
        0
 75
     0
 76
     1
 98
        0
  0
POLYLINE
  5
212
330
1F
100
AcDbEntity
  8
Livello 1
370
     0
100
AcDb2dPolyline
 66
     1
 10
0.0
 20
0.0
 30
0.0
  0
VERTEX
  5
213
330
212
100
AcDbEntity
  8
Livello 1
370
     0
100
AcDbVertex
100
AcDb2dVertex
 10
30.78917443674706
 20
-57.55823443005477
 30
0.0
  0
VERTEX
  5
214
330
212
100
AcDbEntity
  8
Livello 1
370
     0
100
AcDbVertex
100
AcDb2dVertex
 10
31.19070610331346
 20
-59.96566054056434
 30
0.0
  0
VERTEX
  5
215
330
212
100
AcDbEntity
  8
Livello 1
370
     0
100
AcDbVertex
100
AcDb2dVertex
 10
31.19070610331346
 20
-59.96566054056434
 30
0.0
  0
VERTEX
  5
216
330
212
100
AcDbEntity
  8
Livello 1
370
     0
100
AcDbVertex
100
AcDb2dVertex
 10
31.59170860321321
 20
-57.55823443005477
 30
0.0
  0
VERTEX
  5
217
330
212
100
AcDbEntity
  8
Livello 1
370
     0
100
AcDbVertex
100
AcDb2dVertex
 10
31.59170860321321
 20
-57.55823443005477
 30
0.0
  0
VERTEX
  5
218
330
212
100
AcDbEntity
  8
Livello 1
370
     0
100
AcDbVertex
100
AcDb2dVertex
 10
30.78917443674706
 20
-57.55823443005477
 30
0.0
  0
VERTEX
  5
219
330
212
100
AcDbEntity
  8
Livello 1
370
     0
100
AcDbVertex
100
AcDb2dVertex
 10
30.78917443674706
 20
-57.55823443005477
 30
0.0
  0
SEQEND
  5
21B
330
212
100
AcDbEntity
  8
Livello 1
370
     0
  0
HATCH
  5
21A
330
1F
100
AcDbEntity
  8
Livello 1
 62
     7
420
 16777215
100
AcDbHatch
 10
0.0
 20
0.0
 30
0.0
210
0.0
220
0.0
230
1.0
  2
SOLID
 70
     1
 71
     0
 91
        1
 92
        1
 93
        3
 72
     1
 10
30.78917443674706
 20
-57.55823443005477
 11
31.19070610331346
 21
-59.96566054056434
 72
     1
 10
31.19070610331346
 20
-59.96566054056434
 11
31.59170860321321
 21
-57.55823443005477
 72
     1
 10
31.59170860321321
 20
-57.55823443005477
 11
30.78917443674706
 21
-57.55823443005477
 97
        0
 75
     0
 76
     1
 98
        0
  0
POLYLINE
  5
21C
330
1F
100
AcDbEntity
  8
Livello 1
 62
     7
420
 16777215
370
     9
100
AcDb2dPolyline
 66
     1
 10
0.0
 20
0.0
 30
0.0
  0
VERTEX
  5
21D
330
21C
100
AcDbEntity
  8
Livello 1
 62
     7
420
 16777215
370
     9
100
AcDbVertex
100
AcDb2dVertex
 10
34.05374471370891
 20
-21.53030999461758
 30
0.0
  0
VERTEX
  5
21E
330
21C
100
AcDbEntity
  8
Livello 1
 62
     7
420
 16777215
370
     9
100
AcDbVertex
100
AcDb2dVertex
 10
29.77423277033431
 20
-21.53030999461758
 30
0.0
  0
SEQEND
  5
21F
330
21C
100
AcDbEntity
  8
Livello 1
 62
     7
420
 16777215
370
     9
  0
POLYLINE
  5
220
330
1F
100
AcDbEntity
  8
Livello 1
 62
     7
420
 16777215
370
     9
100
AcDb2dPolyline
 66
     1
 10
0.0
 20
0.0
 30
0.0
  0
VERTEX
  5
221
330
220
100
AcDbEntity
  8
Livello 1
 62
     7
420
 16777215
370
     9
100
AcDbVertex
100
AcDb2dVertex
 10
34.05374471370891
 20
-59.96566054056434
 30
0.0
  0
VERTEX
  5
222
330
220
100
AcDbEntity
  8
Livello 1
 62
     7
420
 16777215
370
     9
100
AcDbVertex
100
AcDb2dVertex
 10
29.77423277033431
 20
-59.96566054056434
 30
0.0
  0
SEQEND
  5
223
330
220
100
AcDbEntity
  8
Livello 1
 62
     7
420
 16777215
370
     9
  0
POLYLINE
  5
224
330
1F
100
AcDbEntity
  8
Livello 1
 62
     7
420
 16777215
370
     9
100
AcDb2dPolyline
 66
     1
 10
0.0
 20
0.0
 30
0.0
  0
VERTEX
  5
225
330
224
100
AcDbEntity
  8
Livello 1
 62
     7
420
 16777215
370
     9
100
AcDbVertex
100
AcDb2dVertex
 10
31.19070610331346
 20
-21.53030999461758
 30
0.0
  0
VERTEX
  5
226
330
224
100
AcDbEntity
  8
Livello 1
 62
     7
420
 16777215
370
     9
100
AcDbVertex
100
AcDb2dVertex
 10
31.19070610331346
 20
-59.96566054056434
 30
0.0
  0
SEQEND
  5
227
330
224
100
AcDbEntity
  8
Livello 1
 62
     7
420
 16777215
370
     9
  0
MTEXT
  5
228
330
1F
100
AcDbEntity
  8
Livello 1
 62
     7
420
 16777215
100
AcDbMText
 10
30.29599744251281
 20
-42.68731793521913
 30
0.0
 40
2.247899999438025
 41
0.0
 46
0.0
 71
     7
 72
     1
  1
\fHelvetica|b0|i0|c0|p34;\W1;400
 11
6.123233995736766E-17
 21
1.0
 31
0.0
 73
     1
 44
1.0
  0
POLYLINE
  5
229
330
1F
100
AcDbEntity
  8
Livello 1
 62
     7
420
 16777215
370
     9
100
AcDb2dPolyline
 66
     1
 10
0.0
 20
0.0
 30
0.0
  0
VERTEX
  5
22A
330
229
100
AcDbEntity
  8
Livello 1
 62
     7
420
 16777215
370
     9
100
AcDbVertex
100
AcDb2dVertex
 10
61.8794431435461
 20
-47.40797109925906
 30
0.0
  0
VERTEX
  5
22B
330
229
100
AcDbEntity
  8
Livello 1
 62
     7
420
 16777215
370
     9
100
AcDbVertex
100
AcDb2dVertex
 10
66.03714081525219
 20
-38.45450637927523
 30
0.0
  0
SEQEND
  5
22C
330
229
100
AcDbEntity
  8
Livello 1
 62
     7
420
 16777215
370
     9
  0
POLYLINE
  5
22D
330
1F
100
AcDbEntity
  8
Livello 1
 62
     7
420
 16777215
370
     9
100
AcDb2dPolyline
 66
     1
 10
0.0
 20
0.0
 30
0.0
  0
VERTEX
  5
22E
330
22D
100
AcDbEntity
  8
Livello 1
 62
     7
420
 16777215
370
     9
100
AcDbVertex
100
AcDb2dVertex
 10
66.03714081525219
 20
-38.45450637927523
 30
0.0
  0
VERTEX
  5
22F
330
22D
100
AcDbEntity
  8
Livello 1
 62
     7
420
 16777215
370
     9
100
AcDbVertex
100
AcDb2dVertex
 10
67.74744442750757
 20
-34.7711888801962
 30
0.0
  0
SEQEND
  5
230
330
22D
100
AcDbEntity
  8
Livello 1
 62
     7
420
 16777215
370
     9
  0
POLYLINE
  5
231
330
1F
100
AcDbEntity
  8
Livello 1
370
     0
100
AcDb2dPolyline
 66
     1
 10
0.0
 20
0.0
 30
0.0
  0
VERTEX
  5
232
330
231
100
AcDbEntity
  8
Livello 1
370
     0
100
AcDbVertex
100
AcDb2dVertex
 10
62.52986109547865
 20
-45.05494332206951
 30
0.0
  0
VERTEX
  5
233
330
231
100
AcDbEntity
  8
Livello 1
370
     0
100
AcDbVertex
100
AcDb2dVertex
 10
63.25728887307454
 20
-45.39343359976264
 30
0.0
  0
VERTEX
  5
234
330
231
100
AcDbEntity
  8
Livello 1
370
     0
100
AcDbVertex
100
AcDb2dVertex
 10
63.25728887307454
 20
-45.39343359976264
 30
0.0
  0
VERTEX
  5
235
330
231
100
AcDbEntity
  8
Livello 1
370
     0
100
AcDbVertex
100
AcDb2dVertex
 10
63.90756253624892
 20
-43.04097026701758
 30
0.0
  0
VERTEX
  5
236
330
231
100
AcDbEntity
  8
Livello 1
370
     0
100
AcDbVertex
100
AcDb2dVertex
 10
63.90756253624892
 20
-43.04097026701758
 30
0.0
  0
VERTEX
  5
237
330
231
100
AcDbEntity
  8
Livello 1
370
     0
100
AcDbVertex
100
AcDb2dVertex
 10
62.52986109547865
 20
-45.05494332206951
 30
0.0
  0
VERTEX
  5
238
330
231
100
AcDbEntity
  8
Livello 1
370
     0
100
AcDbVertex
100
AcDb2dVertex
 10
62.52986109547865
 20
-45.05494332206951
 30
0.0
  0
SEQEND
  5
23A
330
231
100
AcDbEntity
  8
Livello 1
370
     0
  0
HATCH
  5
239
330
1F
100
AcDbEntity
  8
Livello 1
 62
     7
420
 16777215
100
AcDbHatch
 10
0.0
 20
0.0
 30
0.0
210
0.0
220
0.0
230
1.0
  2
SOLID
 70
     1
 71
     0
 91
        1
 92
        1
 93
        3
 72
     1
 10
62.52986109547865
 20
-45.05494332206951
 11
63.25728887307454
 21
-45.39343359976264
 72
     1
 10
63.25728887307454
 20
-45.39343359976264
 11
63.90756253624892
 21
-43.04097026701758
 72
     1
 10
63.90756253624892
 20
-43.04097026701758
 11
62.52986109547865
 21
-45.05494332206951
 97
        0
 75
     0
 76
     1
 98
        0
  0
POLYLINE
  5
23B
330
1F
100
AcDbEntity
  8
Livello 1
370
     0
100
AcDb2dPolyline
 66
     1
 10
0.0
 20
0.0
 30
0.0
  0
VERTEX
  5
23C
330
23B
100
AcDbEntity
  8
Livello 1
370
     0
100
AcDbVertex
100
AcDb2dVertex
 10
66.68755718754757
 20
-36.1021841576412
 30
0.0
  0
VERTEX
  5
23D
330
23B
100
AcDbEntity
  8
Livello 1
370
     0
100
AcDbVertex
100
AcDb2dVertex
 10
66.03714081525219
 20
-38.45450637927523
 30
0.0
  0
VERTEX
  5
23E
330
23B
100
AcDbEntity
  8
Livello 1
370
     0
100
AcDbVertex
100
AcDb2dVertex
 10
66.03714081525219
 20
-38.45450637927523
 30
0.0
  0
VERTEX
  5
23F
330
23B
100
AcDbEntity
  8
Livello 1
370
     0
100
AcDbVertex
100
AcDb2dVertex
 10
67.415020224544
 20
-36.43996887977882
 30
0.0
  0
VERTEX
  5
240
330
23B
100
AcDbEntity
  8
Livello 1
370
     0
100
AcDbVertex
100
AcDb2dVertex
 10
67.415020224544
 20
-36.43996887977882
 30
0.0
  0
VERTEX
  5
241
330
23B
100
AcDbEntity
  8
Livello 1
370
     0
100
AcDbVertex
100
AcDb2dVertex
 10
66.68755718754757
 20
-36.1021841576412
 30
0.0
  0
VERTEX
  5
242
330
23B
100
AcDbEntity
  8
Livello 1
370
     0
100
AcDbVertex
100
AcDb2dVertex
 10
66.68755718754757
 20
-36.1021841576412
 30
0.0
  0
SEQEND
  5
244
330
23B
100
AcDbEntity
  8
Livello 1
370
     0
  0
HATCH
  5
243
330
1F
100
AcDbEntity
  8
Livello 1
 62
     7
420
 16777215
100
AcDbHatch
 10
0.0
 20
0.0
 30
0.0
210
0.0
220
0.0
230
1.0
  2
SOLID
 70
     1
 71
     0
 91
        1
 92
        1
 93
        3
 72
     1
 10
66.68755718754757
 20
-36.1021841576412
 11
66.03714081525219
 21
-38.45450637927523
 72
     1
 10
66.03714081525219
 20
-38.45450637927523
 11
67.415020224544
 21
-36.43996887977882
 72
     1
 10
67.415020224544
 20
-36.43996887977882
 11
66.68755718754757
 21
-36.1021841576412
 97
        0
 75
     0
 76
     1
 98
        0
  0
POLYLINE
  5
245
330
1F
100
AcDbEntity
  8
Livello 1
 62
     7
420
 16777215
370
     9
100
AcDb2dPolyline
 66
     1
 10
0.0
 20
0.0
 30
0.0
  0
VERTEX
  5
246
330
245
100
AcDbEntity
  8
Livello 1
 62
     7
420
 16777215
370
     9
100
AcDbVertex
100
AcDb2dVertex
 10
67.74744442750757
 20
-34.7711888801962
 30
0.0
  0
VERTEX
  5
247
330
245
100
AcDbEntity
  8
Livello 1
 62
     7
420
 16777215
370
     9
100
AcDbVertex
100
AcDb2dVertex
 10
74.03905783332849
 20
-34.7711888801962
 30
0.0
  0
SEQEND
  5
248
330
245
100
AcDbEntity
  8
Livello 1
 62
     7
420
 16777215
370
     9
  0
MTEXT
  5
249
330
1F
100
AcDbEntity
  8
Livello 1
 62
     7
420
 16777215
100
AcDbMText
 10
68.13537595952866
 20
-34.0633832925833
 30
0.0
 40
2.247899999438025
 41
0.0
 46
0.0
 71
     7
 72
     1
  1
\fHelvetica|b0|i0|c0|p34;\W1;Ø50
 73
     1
 44
1.0
  0
POLYLINE
  5
24A
330
1F
100
AcDbEntity
  8
Livello 1
370
     0
100
AcDb2dPolyline
 66
     1
 10
0.0
 20
0.0
 30
0.0
  0
VERTEX
  5
24B
330
24A
100
AcDbEntity
  8
Livello 1
370
     0
100
AcDbVertex
100
AcDb2dVertex
 10
58.79090905567483
 20
-104.0426293659183
 30
0.0
  0
VERTEX
  5
24C
330
24A
100
AcDbEntity
  8
Livello 1
370
     0
100
AcDbVertex
100
AcDb2dVertex
 10
61.19762954982951
 20
-103.641979643796
 30
0.0
  0
VERTEX
  5
24D
330
24A
100
AcDbEntity
  8
Livello 1
370
     0
100
AcDbVertex
100
AcDb2dVertex
 10
61.19762954982951
 20
-103.641979643796
 30
0.0
  0
VERTEX
  5
24E
330
24A
100
AcDbEntity
  8
Livello 1
370
     0
100
AcDbVertex
100
AcDb2dVertex
 10
58.79090905567483
 20
-103.2406243661188
 30
0.0
  0
VERTEX
  5
24F
330
24A
100
AcDbEntity
  8
Livello 1
370
     0
100
AcDbVertex
100
AcDb2dVertex
 10
58.79090905567483
 20
-103.2406243661188
 30
0.0
  0
VERTEX
  5
250
330
24A
100
AcDbEntity
  8
Livello 1
370
     0
100
AcDbVertex
100
AcDb2dVertex
 10
58.79090905567483
 20
-104.0426293659183
 30
0.0
  0
VERTEX
  5
251
330
24A
100
AcDbEntity
  8
Livello 1
370
     0
100
AcDbVertex
100
AcDb2dVertex
 10
58.79090905567483
 20
-104.0426293659183
 30
0.0
  0
SEQEND
  5
253
330
24A
100
AcDbEntity
  8
Livello 1
370
     0
  0
HATCH
  5
252
330
1F
100
AcDbEntity
  8
Livello 1
 62
     7
420
 16777215
100
AcDbHatch
 10
0.0
 20
0.0
 30
0.0
210
0.0
220
0.0
230
1.0
  2
SOLID
 70
     1
 71
     0
 91
        1
 92
        1
 93
        3
 72
     1
 10
58.79090905567483
 20
-104.0426293659183
 11
61.19762954982951
 21
-103.641979643796
 72
     1
 10
61.19762954982951
 20
-103.641979643796
 11
58.79090905567483
 21
-103.2406243661188
 72
     1
 10
58.79090905567483
 20
-103.2406243661188
 11
58.79090905567483
 21
-104.0426293659183
 97
        0
 75
     0
 76
     1
 98
        0
  0
POLYLINE
  5
254
330
1F
100
AcDbEntity
  8
Livello 1
370
     0
100
AcDb2dPolyline
 66
     1
 10
0.0
 20
0.0
 30
0.0
  0
VERTEX
  5
255
330
254
100
AcDbEntity
  8
Livello 1
370
     0
100
AcDbVertex
100
AcDb2dVertex
 10
70.68491736334418
 20
-104.0426293659183
 30
0.0
  0
VERTEX
  5
256
330
254
100
AcDbEntity
  8
Livello 1
370
     0
100
AcDbVertex
100
AcDb2dVertex
 10
70.68491736334418
 20
-103.2406243661188
 30
0.0
  0
VERTEX
  5
257
330
254
100
AcDbEntity
  8
Livello 1
370
     0
100
AcDbVertex
100
AcDb2dVertex
 10
70.68491736334418
 20
-103.2406243661188
 30
0.0
  0
VERTEX
  5
258
330
254
100
AcDbEntity
  8
Livello 1
370
     0
100
AcDbVertex
100
AcDb2dVertex
 10
68.27749131365164
 20
-103.641979643796
 30
0.0
  0
VERTEX
  5
259
330
254
100
AcDbEntity
  8
Livello 1
370
     0
100
AcDbVertex
100
AcDb2dVertex
 10
68.27749131365164
 20
-103.641979643796
 30
0.0
  0
VERTEX
  5
25A
330
254
100
AcDbEntity
  8
Livello 1
370
     0
100
AcDbVertex
100
AcDb2dVertex
 10
70.68491736334418
 20
-104.0426293659183
 30
0.0
  0
VERTEX
  5
25B
330
254
100
AcDbEntity
  8
Livello 1
370
     0
100
AcDbVertex
100
AcDb2dVertex
 10
70.68491736334418
 20
-104.0426293659183
 30
0.0
  0
SEQEND
  5
25D
330
254
100
AcDbEntity
  8
Livello 1
370
     0
  0
HATCH
  5
25C
330
1F
100
AcDbEntity
  8
Livello 1
 62
     7
420
 16777215
100
AcDbHatch
 10
0.0
 20
0.0
 30
0.0
210
0.0
220
0.0
230
1.0
  2
SOLID
 70
     1
 71
     0
 91
        1
 92
        1
 93
        3
 72
     1
 10
70.68491736334418
 20
-104.0426293659183
 11
70.68491736334418
 21
-103.2406243661188
 72
     1
 10
70.68491736334418
 20
-103.2406243661188
 11
68.27749131365164
 21
-103.641979643796
 72
     1
 10
68.27749131365164
 20
-103.641979643796
 11
70.68491736334418
 21
-104.0426293659183
 97
        0
 75
     0
 76
     1
 98
        0
  0
POLYLINE
  5
25E
330
1F
100
AcDbEntity
  8
Livello 1
 62
     7
420
 16777215
370
     9
100
AcDb2dPolyline
 66
     1
 10
0.0
 20
0.0
 30
0.0
  0
VERTEX
  5
25F
330
25E
100
AcDbEntity
  8
Livello 1
 62
     7
420
 16777215
370
     9
100
AcDbVertex
100
AcDb2dVertex
 10
61.19762954982951
 20
-97.40635020091077
 30
0.0
  0
VERTEX
  5
260
330
25E
100
AcDbEntity
  8
Livello 1
 62
     7
420
 16777215
370
     9
100
AcDbVertex
100
AcDb2dVertex
 10
61.19762954982951
 20
-105.0579238101085
 30
0.0
  0
SEQEND
  5
261
330
25E
100
AcDbEntity
  8
Livello 1
 62
     7
420
 16777215
370
     9
  0
POLYLINE
  5
262
330
1F
100
AcDbEntity
  8
Livello 1
 62
     7
420
 16777215
370
     9
100
AcDb2dPolyline
 66
     1
 10
0.0
 20
0.0
 30
0.0
  0
VERTEX
  5
263
330
262
100
AcDbEntity
  8
Livello 1
 62
     7
420
 16777215
370
     9
100
AcDbVertex
100
AcDb2dVertex
 10
68.27749131365164
 20
-97.40635020091077
 30
0.0
  0
VERTEX
  5
264
330
262
100
AcDbEntity
  8
Livello 1
 62
     7
420
 16777215
370
     9
100
AcDbVertex
100
AcDb2dVertex
 10
68.27749131365164
 20
-105.0579238101085
 30
0.0
  0
SEQEND
  5
265
330
262
100
AcDbEntity
  8
Livello 1
 62
     7
420
 16777215
370
     9
  0
POLYLINE
  5
266
330
1F
100
AcDbEntity
  8
Livello 1
 62
     7
420
 16777215
370
     9
100
AcDb2dPolyline
 66
     1
 10
0.0
 20
0.0
 30
0.0
  0
VERTEX
  5
267
330
266
100
AcDbEntity
  8
Livello 1
 62
     7
420
 16777215
370
     9
100
AcDbVertex
100
AcDb2dVertex
 10
57.61802880781972
 20
-103.6412740882405
 30
0.0
  0
VERTEX
  5
268
330
266
100
AcDbEntity
  8
Livello 1
 62
     7
420
 16777215
370
     9
100
AcDbVertex
100
AcDb2dVertex
 10
72.38643509771263
 20
-103.6412740882405
 30
0.0
  0
SEQEND
  5
269
330
266
100
AcDbEntity
  8
Livello 1
 62
     7
420
 16777215
370
     9
  0
MTEXT
  5
26A
330
1F
100
AcDbEntity
  8
Livello 1
 62
     7
420
 16777215
100
AcDbMText
 10
61.78692625408452
 20
-102.9443435199657
 30
0.0
 40
2.247899999438025
 41
0.0
 46
0.0
 71
     7
 72
     1
  1
\fHelvetica|b0|i0|c0|p34;\W1;Ø70
 73
     1
 44
1.0
  0
POLYLINE
  5
26B
330
1F
100
AcDbEntity
  8
Livello 1
 62
     7
420
 16777215
370
     9
100
AcDb2dPolyline
 66
     1
 10
0.0
 20
0.0
 30
0.0
  0
VERTEX
  5
26C
330
26B
100
AcDbEntity
  8
Livello 1
 62
     7
420
 16777215
370
     9
100
AcDbVertex
100
AcDb2dVertex
 10
70.63669442678513
 20
-40.74756193425753
 30
0.0
  0
VERTEX
  5
26D
330
26B
100
AcDbEntity
  8
Livello 1
 62
     7
420
 16777215
370
     9
100
AcDbVertex
100
AcDb2dVertex
 10
59.30801070914881
 20
-40.74756193425753
 30
0.0
  0
SEQEND
  5
26E
330
26B
100
AcDbEntity
  8
Livello 1
 62
     7
420
 16777215
370
     9
  0
POLYLINE
  5
26F
330
1F
100
AcDbEntity
  8
Livello 1
 62
     7
420
 16777215
370
     9
100
AcDb2dPolyline
 66
     1
 10
0.0
 20
0.0
 30
0.0
  0
VERTEX
  5
270
330
26F
100
AcDbEntity
  8
Livello 1
 62
     7
420
 16777215
370
     9
100
AcDbVertex
100
AcDb2dVertex
 10
64.97242223130398
 20
-33.66752360269409
 30
0.0
  0
VERTEX
  5
271
330
26F
100
AcDbEntity
  8
Livello 1
 62
     7
420
 16777215
370
     9
100
AcDbVertex
100
AcDb2dVertex
 10
64.97242223130398
 20
-35.38682138004233
 30
0.0
  0
SEQEND
  5
272
330
26F
100
AcDbEntity
  8
Livello 1
 62
     7
420
 16777215
370
     9
  0
POLYLINE
  5
273
330
1F
100
AcDbEntity
  8
Livello 1
 62
     7
420
 16777215
370
     9
100
AcDb2dPolyline
 66
     1
 10
0.0
 20
0.0
 30
0.0
  0
VERTEX
  5
274
330
273
100
AcDbEntity
  8
Livello 1
 62
     7
420
 16777215
370
     9
100
AcDbVertex
100
AcDb2dVertex
 10
64.73764862618276
 20
-98.8233174227784
 30
0.0
  0
VERTEX
  5
275
330
273
100
AcDbEntity
  8
Livello 1
 62
     7
420
 16777215
370
     9
100
AcDbVertex
100
AcDb2dVertex
 10
64.73764862618276
 20
-92.28816797988391
 30
0.0
  0
SEQEND
  5
276
330
273
100
AcDbEntity
  8
Livello 1
 62
     7
420
 16777215
370
     9
  0
POLYLINE
  5
277
330
1F
100
AcDbEntity
  8
Livello 1
370
     0
100
AcDb2dPolyline
 66
     1
 10
0.0
 20
0.0
 30
0.0
  0
VERTEX
  5
278
330
277
100
AcDbEntity
  8
Livello 1
370
     0
100
AcDbVertex
100
AcDb2dVertex
 10
47.92711766616625
 20
-108.7183107536382
 30
0.0
  0
VERTEX
  5
279
330
277
100
AcDbEntity
  8
Livello 1
370
     0
100
AcDbVertex
100
AcDb2dVertex
 10
47.92711766616625
 20
-107.9163057538386
 30
0.0
  0
VERTEX
  5
27A
330
277
100
AcDbEntity
  8
Livello 1
370
     0
100
AcDbVertex
100
AcDb2dVertex
 10
47.92711766616625
 20
-107.9163057538386
 30
0.0
  0
VERTEX
  5
27B
330
277
100
AcDbEntity
  8
Livello 1
370
     0
100
AcDbVertex
100
AcDb2dVertex
 10
45.52057356089564
 20
-108.3166379759607
 30
0.0
  0
VERTEX
  5
27C
330
277
100
AcDbEntity
  8
Livello 1
370
     0
100
AcDbVertex
100
AcDb2dVertex
 10
45.52057356089564
 20
-108.3166379759607
 30
0.0
  0
VERTEX
  5
27D
330
277
100
AcDbEntity
  8
Livello 1
370
     0
100
AcDbVertex
100
AcDb2dVertex
 10
47.92711766616625
 20
-108.7183107536382
 30
0.0
  0
VERTEX
  5
27E
330
277
100
AcDbEntity
  8
Livello 1
370
     0
100
AcDbVertex
100
AcDb2dVertex
 10
47.92711766616625
 20
-108.7183107536382
 30
0.0
  0
SEQEND
  5
280
330
277
100
AcDbEntity
  8
Livello 1
370
     0
  0
HATCH
  5
27F
330
1F
100
AcDbEntity
  8
Livello 1
 62
     7
420
 16777215
100
AcDbHatch
 10
0.0
 20
0.0
 30
0.0
210
0.0
220
0.0
230
1.0
  2
SOLID
 70
     1
 71
     0
 91
        1
 92
        1
 93
        3
 72
     1
 10
47.92711766616625
 20
-108.7183107536382
 11
47.92711766616625
 21
-107.9163057538386
 72
     1
 10
47.92711766616625
 20
-107.9163057538386
 11
45.52057356089564
 21
-108.3166379759607
 72
     1
 10
45.52057356089564
 20
-108.3166379759607
 11
47.92711766616625
 21
-108.7183107536382
 97
        0
 75
     0
 76
     1
 98
        0
  0
POLYLINE
  5
281
330
1F
100
AcDbEntity
  8
Livello 1
370
     0
100
AcDb2dPolyline
 66
     1
 10
0.0
 20
0.0
 30
0.0
  0
VERTEX
  5
282
330
281
100
AcDbEntity
  8
Livello 1
370
     0
100
AcDbVertex
100
AcDb2dVertex
 10
62.3307164653665
 20
-108.7183107536382
 30
0.0
  0
VERTEX
  5
283
330
281
100
AcDbEntity
  8
Livello 1
370
     0
100
AcDbVertex
100
AcDb2dVertex
 10
64.73817779283625
 20
-108.3166379759607
 30
0.0
  0
VERTEX
  5
284
330
281
100
AcDbEntity
  8
Livello 1
370
     0
100
AcDbVertex
100
AcDb2dVertex
 10
64.73817779283625
 20
-108.3166379759607
 30
0.0
  0
VERTEX
  5
285
330
281
100
AcDbEntity
  8
Livello 1
370
     0
100
AcDbVertex
100
AcDb2dVertex
 10
62.3307164653665
 20
-107.9163057538386
 30
0.0
  0
VERTEX
  5
286
330
281
100
AcDbEntity
  8
Livello 1
370
     0
100
AcDbVertex
100
AcDb2dVertex
 10
62.3307164653665
 20
-107.9163057538386
 30
0.0
  0
VERTEX
  5
287
330
281
100
AcDbEntity
  8
Livello 1
370
     0
100
AcDbVertex
100
AcDb2dVertex
 10
62.3307164653665
 20
-108.7183107536382
 30
0.0
  0
VERTEX
  5
288
330
281
100
AcDbEntity
  8
Livello 1
370
     0
100
AcDbVertex
100
AcDb2dVertex
 10
62.3307164653665
 20
-108.7183107536382
 30
0.0
  0
SEQEND
  5
28A
330
281
100
AcDbEntity
  8
Livello 1
370
     0
  0
HATCH
  5
289
330
1F
100
AcDbEntity
  8
Livello 1
 62
     7
420
 16777215
100
AcDbHatch
 10
0.0
 20
0.0
 30
0.0
210
0.0
220
0.0
230
1.0
  2
SOLID
 70
     1
 71
     0
 91
        1
 92
        1
 93
        3
 72
     1
 10
62.3307164653665
 20
-108.7183107536382
 11
64.73817779283625
 21
-108.3166379759607
 72
     1
 10
64.73817779283625
 20
-108.3166379759607
 11
62.3307164653665
 21
-107.9163057538386
 72
     1
 10
62.3307164653665
 20
-107.9163057538386
 11
62.3307164653665
 21
-108.7183107536382
 97
        0
 75
     0
 76
     1
 98
        0
  0
POLYLINE
  5
28B
330
1F
100
AcDbEntity
  8
Livello 1
 62
     7
420
 16777215
370
     9
100
AcDb2dPolyline
 66
     1
 10
0.0
 20
0.0
 30
0.0
  0
VERTEX
  5
28C
330
28B
100
AcDbEntity
  8
Livello 1
 62
     7
420
 16777215
370
     9
100
AcDbVertex
100
AcDb2dVertex
 10
45.52004439424248
 20
-96.90163103437
 30
0.0
  0
VERTEX
  5
28D
330
28B
100
AcDbEntity
  8
Livello 1
 62
     7
420
 16777215
370
     9
100
AcDbVertex
100
AcDb2dVertex
 10
45.52057356089564
 20
-109.7325468644957
 30
0.0
  0
SEQEND
  5
28E
330
28B
100
AcDbEntity
  8
Livello 1
 62
     7
420
 16777215
370
     9
  0
POLYLINE
  5
28F
330
1F
100
AcDbEntity
  8
Livello 1
 62
     7
420
 16777215
370
     9
100
AcDb2dPolyline
 66
     1
 10
0.0
 20
0.0
 30
0.0
  0
VERTEX
  5
290
330
28F
100
AcDbEntity
  8
Livello 1
 62
     7
420
 16777215
370
     9
100
AcDbVertex
100
AcDb2dVertex
 10
64.73764862618276
 20
-104.8250199212784
 30
0.0
  0
VERTEX
  5
291
330
28F
100
AcDbEntity
  8
Livello 1
 62
     7
420
 16777215
370
     9
100
AcDbVertex
100
AcDb2dVertex
 10
64.73764862618276
 20
-109.7325468644957
 30
0.0
  0
SEQEND
  5
292
330
28F
100
AcDbEntity
  8
Livello 1
 62
     7
420
 16777215
370
     9
  0
POLYLINE
  5
293
330
1F
100
AcDbEntity
  8
Livello 1
 62
     7
420
 16777215
370
     9
100
AcDb2dPolyline
 66
     1
 10
0.0
 20
0.0
 30
0.0
  0
VERTEX
  5
294
330
293
100
AcDbEntity
  8
Livello 1
 62
     7
420
 16777215
370
     9
100
AcDbVertex
100
AcDb2dVertex
 10
45.52057356089564
 20
-108.3166379759607
 30
0.0
  0
VERTEX
  5
295
330
293
100
AcDbEntity
  8
Livello 1
 62
     7
420
 16777215
370
     9
100
AcDbVertex
100
AcDb2dVertex
 10
64.73764862618276
 20
-108.3166379759607
 30
0.0
  0
SEQEND
  5
296
330
293
100
AcDbEntity
  8
Livello 1
 62
     7
420
 16777215
370
     9
  0
MTEXT
  5
297
330
1F
100
AcDbEntity
  8
Livello 1
 62
     7
420
 16777215
100
AcDbMText
 10
52.61229246731568
 20
-107.4489754302233
 30
0.0
 40
2.247899999438025
 41
0.0
 46
0.0
 71
     7
 72
     1
  1
\fHelvetica|b0|i0|c0|p34;\W1;200
 73
     1
 44
1.0
  0
POLYLINE
  5
298
330
1F
100
AcDbEntity
  8
Livello 1
370
     0
100
AcDb2dPolyline
 66
     1
 10
0.0
 20
0.0
 30
0.0
  0
VERTEX
  5
299
330
298
100
AcDbEntity
  8
Livello 1
370
     0
100
AcDbVertex
100
AcDb2dVertex
 10
39.71970759777727
 20
-93.5840029796438
 30
0.0
  0
VERTEX
  5
29A
330
298
100
AcDbEntity
  8
Livello 1
370
     0
100
AcDbVertex
100
AcDb2dVertex
 10
40.12141665663616
 20
-95.99075881237538
 30
0.0
  0
VERTEX
  5
29B
330
298
100
AcDbEntity
  8
Livello 1
370
     0
100
AcDbVertex
100
AcDb2dVertex
 10
40.12141665663616
 20
-95.99075881237538
 30
0.0
  0
VERTEX
  5
29C
330
298
100
AcDbEntity
  8
Livello 1
370
     0
100
AcDbVertex
100
AcDb2dVertex
 10
40.52259452173804
 20
-93.5840029796438
 30
0.0
  0
VERTEX
  5
29D
330
298
100
AcDbEntity
  8
Livello 1
370
     0
100
AcDbVertex
100
AcDb2dVertex
 10
40.52259452173804
 20
-93.5840029796438
 30
0.0
  0
VERTEX
  5
29E
330
298
100
AcDbEntity
  8
Livello 1
370
     0
100
AcDbVertex
100
AcDb2dVertex
 10
39.71970759777727
 20
-93.5840029796438
 30
0.0
  0
VERTEX
  5
29F
330
298
100
AcDbEntity
  8
Livello 1
370
     0
100
AcDbVertex
100
AcDb2dVertex
 10
39.71970759777727
 20
-93.5840029796438
 30
0.0
  0
SEQEND
  5
2A1
330
298
100
AcDbEntity
  8
Livello 1
370
     0
  0
HATCH
  5
2A0
330
1F
100
AcDbEntity
  8
Livello 1
 62
     7
420
 16777215
100
AcDbHatch
 10
0.0
 20
0.0
 30
0.0
210
0.0
220
0.0
230
1.0
  2
SOLID
 70
     1
 71
     0
 91
        1
 92
        1
 93
        3
 72
     1
 10
39.71970759777727
 20
-93.5840029796438
 11
40.12141665663616
 21
-95.99075881237538
 72
     1
 10
40.12141665663616
 20
-95.99075881237538
 11
40.52259452173804
 21
-93.5840029796438
 72
     1
 10
40.52259452173804
 20
-93.5840029796438
 11
39.71970759777727
 21
-93.5840029796438
 97
        0
 75
     0
 76
     1
 98
        0
  0
POLYLINE
  5
2A2
330
1F
100
AcDbEntity
  8
Livello 1
370
     0
100
AcDb2dPolyline
 66
     1
 10
0.0
 20
0.0
 30
0.0
  0
VERTEX
  5
2A3
330
2A2
100
AcDbEntity
  8
Livello 1
370
     0
100
AcDbVertex
100
AcDb2dVertex
 10
39.71970759777727
 20
-84.19122803450766
 30
0.0
  0
VERTEX
  5
2A4
330
2A2
100
AcDbEntity
  8
Livello 1
370
     0
100
AcDbVertex
100
AcDb2dVertex
 10
40.52259452173804
 20
-84.19122803450766
 30
0.0
  0
VERTEX
  5
2A5
330
2A2
100
AcDbEntity
  8
Livello 1
370
     0
100
AcDbVertex
100
AcDb2dVertex
 10
40.52259452173804
 20
-84.19122803450766
 30
0.0
  0
VERTEX
  5
2A6
330
2A2
100
AcDbEntity
  8
Livello 1
370
     0
100
AcDbVertex
100
AcDb2dVertex
 10
40.12141665663616
 20
-81.78313164622072
 30
0.0
  0
VERTEX
  5
2A7
330
2A2
100
AcDbEntity
  8
Livello 1
370
     0
100
AcDbVertex
100
AcDb2dVertex
 10
40.12141665663616
 20
-81.78313164622072
 30
0.0
  0
VERTEX
  5
2A8
330
2A2
100
AcDbEntity
  8
Livello 1
370
     0
100
AcDbVertex
100
AcDb2dVertex
 10
39.71970759777727
 20
-84.19122803450766
 30
0.0
  0
VERTEX
  5
2A9
330
2A2
100
AcDbEntity
  8
Livello 1
370
     0
100
AcDbVertex
100
AcDb2dVertex
 10
39.71970759777727
 20
-84.19122803450766
 30
0.0
  0
SEQEND
  5
2AB
330
2A2
100
AcDbEntity
  8
Livello 1
370
     0
  0
HATCH
  5
2AA
330
1F
100
AcDbEntity
  8
Livello 1
 62
     7
420
 16777215
100
AcDbHatch
 10
0.0
 20
0.0
 30
0.0
210
0.0
220
0.0
230
1.0
  2
SOLID
 70
     1
 71
     0
 91
        1
 92
        1
 93
        3
 72
     1
 10
39.71970759777727
 20
-84.19122803450766
 11
40.52259452173804
 21
-84.19122803450766
 72
     1
 10
40.52259452173804
 20
-84.19122803450766
 11
40.12141665663616
 21
-81.78313164622072
 72
     1
 10
40.12141665663616
 20
-81.78313164622072
 11
39.71970759777727
 21
-84.19122803450766
 97
        0
 75
     0
 76
     1
 98
        0
  0
POLYLINE
  5
2AC
330
1F
100
AcDbEntity
  8
Livello 1
 62
     7
420
 16777215
370
     9
100
AcDb2dPolyline
 66
     1
 10
0.0
 20
0.0
 30
0.0
  0
VERTEX
  5
2AD
330
2AC
100
AcDbEntity
  8
Livello 1
 62
     7
420
 16777215
370
     9
100
AcDbVertex
100
AcDb2dVertex
 10
44.60966608413482
 20
-95.99075881237538
 30
0.0
  0
VERTEX
  5
2AE
330
2AC
100
AcDbEntity
  8
Livello 1
 62
     7
420
 16777215
370
     9
100
AcDbVertex
100
AcDb2dVertex
 10
38.70511873477238
 20
-95.99075881237538
 30
0.0
  0
SEQEND
  5
2AF
330
2AC
100
AcDbEntity
  8
Livello 1
 62
     7
420
 16777215
370
     9
  0
POLYLINE
  5
2B0
330
1F
100
AcDbEntity
  8
Livello 1
 62
     7
420
 16777215
370
     9
100
AcDb2dPolyline
 66
     1
 10
0.0
 20
0.0
 30
0.0
  0
VERTEX
  5
2B1
330
2B0
100
AcDbEntity
  8
Livello 1
 62
     7
420
 16777215
370
     9
100
AcDbVertex
100
AcDb2dVertex
 10
46.61591325517342
 20
-81.78313164622072
 30
0.0
  0
VERTEX
  5
2B2
330
2B0
100
AcDbEntity
  8
Livello 1
 62
     7
420
 16777215
370
     9
100
AcDbVertex
100
AcDb2dVertex
 10
38.70511873477238
 20
-81.78313164622072
 30
0.0
  0
SEQEND
  5
2B3
330
2B0
100
AcDbEntity
  8
Livello 1
 62
     7
420
 16777215
370
     9
  0
POLYLINE
  5
2B4
330
1F
100
AcDbEntity
  8
Livello 1
 62
     7
420
 16777215
370
     9
100
AcDb2dPolyline
 66
     1
 10
0.0
 20
0.0
 30
0.0
  0
VERTEX
  5
2B5
330
2B4
100
AcDbEntity
  8
Livello 1
 62
     7
420
 16777215
370
     9
100
AcDbVertex
100
AcDb2dVertex
 10
40.12071110108096
 20
-95.99075886486315
 30
0.0
  0
VERTEX
  5
2B6
330
2B4
100
AcDbEntity
  8
Livello 1
 62
     7
420
 16777215
370
     9
100
AcDbVertex
100
AcDb2dVertex
 10
40.12071110108096
 20
-81.78313164622072
 30
0.0
  0
SEQEND
  5
2B7
330
2B4
100
AcDbEntity
  8
Livello 1
 62
     7
420
 16777215
370
     9
  0
MTEXT
  5
2B8
330
1F
100
AcDbEntity
  8
Livello 1
 62
     7
420
 16777215
100
AcDbMText
 10
39.41361489900076
 20
-91.22061629663929
 30
0.0
 40
2.247899999438025
 41
0.0
 46
0.0
 71
     7
 72
     1
  1
\fHelvetica|b0|i0|c0|p34;\W1;140
 11
6.123233995736766E-17
 21
1.0
 31
0.0
 73
     1
 44
1.0
  0
POLYLINE
  5
2B9
330
1F
100
AcDbEntity
  8
Livello 1
370
     0
100
AcDb2dPolyline
 66
     1
 10
0.0
 20
0.0
 30
0.0
  0
VERTEX
  5
2BA
330
2B9
100
AcDbEntity
  8
Livello 1
370
     0
100
AcDbVertex
100
AcDb2dVertex
 10
52.04643311662932
 20
-78.82928803584846
 30
0.0
  0
VERTEX
  5
2BB
330
2B9
100
AcDbEntity
  8
Livello 1
370
     0
100
AcDbVertex
100
AcDb2dVertex
 10
49.63865554314577
 20
-79.23099609130342
 30
0.0
  0
VERTEX
  5
2BC
330
2B9
100
AcDbEntity
  8
Livello 1
370
     0
100
AcDbVertex
100
AcDb2dVertex
 10
49.63865554314577
 20
-79.23099609130342
 30
0.0
  0
VERTEX
  5
2BD
330
2B9
100
AcDbEntity
  8
Livello 1
370
     0
100
AcDbVertex
100
AcDb2dVertex
 10
52.04643311662932
 20
-79.63164581342573
 30
0.0
  0
VERTEX
  5
2BE
330
2B9
100
AcDbEntity
  8
Livello 1
370
     0
100
AcDbVertex
100
AcDb2dVertex
 10
52.04643311662932
 20
-79.63164581342573
 30
0.0
  0
VERTEX
  5
2BF
330
2B9
100
AcDbEntity
  8
Livello 1
370
     0
100
AcDbVertex
100
AcDb2dVertex
 10
52.04643311662932
 20
-78.82928803584846
 30
0.0
  0
VERTEX
  5
2C0
330
2B9
100
AcDbEntity
  8
Livello 1
370
     0
100
AcDbVertex
100
AcDb2dVertex
 10
52.04643311662932
 20
-78.82928803584846
 30
0.0
  0
SEQEND
  5
2C2
330
2B9
100
AcDbEntity
  8
Livello 1
370
     0
  0
HATCH
  5
2C1
330
1F
100
AcDbEntity
  8
Livello 1
 62
     7
420
 16777215
100
AcDbHatch
 10
0.0
 20
0.0
 30
0.0
210
0.0
220
0.0
230
1.0
  2
SOLID
 70
     1
 71
     0
 91
        1
 92
        1
 93
        3
 72
     1
 10
52.04643311662932
 20
-78.82928803584846
 11
49.63865554314577
 21
-79.23099609130342
 72
     1
 10
49.63865554314577
 20
-79.23099609130342
 11
52.04643311662932
 21
-79.63164581342573
 72
     1
 10
52.04643311662932
 20
-79.63164581342573
 11
52.04643311662932
 21
-78.82928803584846
 97
        0
 75
     0
 76
     1
 98
        0
  0
POLYLINE
  5
2C3
330
1F
100
AcDbEntity
  8
Livello 1
370
     0
100
AcDb2dPolyline
 66
     1
 10
0.0
 20
0.0
 30
0.0
  0
VERTEX
  5
2C4
330
2C3
100
AcDbEntity
  8
Livello 1
370
     0
100
AcDbVertex
100
AcDb2dVertex
 10
77.4290405246206
 20
-78.82928803584846
 30
0.0
  0
VERTEX
  5
2C5
330
2C3
100
AcDbEntity
  8
Livello 1
370
     0
100
AcDbVertex
100
AcDb2dVertex
 10
77.4290405246206
 20
-79.63164581342573
 30
0.0
  0
VERTEX
  5
2C6
330
2C3
100
AcDbEntity
  8
Livello 1
370
     0
100
AcDbVertex
100
AcDb2dVertex
 10
77.4290405246206
 20
-79.63164581342573
 30
0.0
  0
VERTEX
  5
2C7
330
2C3
100
AcDbEntity
  8
Livello 1
370
     0
100
AcDbVertex
100
AcDb2dVertex
 10
79.83646657431348
 20
-79.23099609130342
 30
0.0
  0
VERTEX
  5
2C8
330
2C3
100
AcDbEntity
  8
Livello 1
370
     0
100
AcDbVertex
100
AcDb2dVertex
 10
79.83646657431348
 20
-79.23099609130342
 30
0.0
  0
VERTEX
  5
2C9
330
2C3
100
AcDbEntity
  8
Livello 1
370
     0
100
AcDbVertex
100
AcDb2dVertex
 10
77.4290405246206
 20
-78.82928803584846
 30
0.0
  0
VERTEX
  5
2CA
330
2C3
100
AcDbEntity
  8
Livello 1
370
     0
100
AcDbVertex
100
AcDb2dVertex
 10
77.4290405246206
 20
-78.82928803584846
 30
0.0
  0
SEQEND
  5
2CC
330
2C3
100
AcDbEntity
  8
Livello 1
370
     0
  0
HATCH
  5
2CB
330
1F
100
AcDbEntity
  8
Livello 1
 62
     7
420
 16777215
100
AcDbHatch
 10
0.0
 20
0.0
 30
0.0
210
0.0
220
0.0
230
1.0
  2
SOLID
 70
     1
 71
     0
 91
        1
 92
        1
 93
        3
 72
     1
 10
77.4290405246206
 20
-78.82928803584846
 11
77.4290405246206
 21
-79.63164581342573
 72
     1
 10
77.4290405246206
 20
-79.63164581342573
 11
79.83646657431348
 21
-79.23099609130342
 72
     1
 10
79.83646657431348
 20
-79.23099609130342
 11
77.4290405246206
 21
-78.82928803584846
 97
        0
 75
     0
 76
     1
 98
        0
  0
POLYLINE
  5
2CD
330
1F
100
AcDbEntity
  8
Livello 1
 62
     7
420
 16777215
370
     9
100
AcDb2dPolyline
 66
     1
 10
0.0
 20
0.0
 30
0.0
  0
VERTEX
  5
2CE
330
2CD
100
AcDbEntity
  8
Livello 1
 62
     7
420
 16777215
370
     9
100
AcDbVertex
100
AcDb2dVertex
 10
49.63918345582115
 20
-92.02704192132643
 30
0.0
  0
VERTEX
  5
2CF
330
2CD
100
AcDbEntity
  8
Livello 1
 62
     7
420
 16777215
370
     9
100
AcDbVertex
100
AcDb2dVertex
 10
49.63918345582115
 20
-77.8143816472129
 30
0.0
  0
SEQEND
  5
2D0
330
2CD
100
AcDbEntity
  8
Livello 1
 62
     7
420
 16777215
370
     9
  0
POLYLINE
  5
2D1
330
1F
100
AcDbEntity
  8
Livello 1
 62
     7
420
 16777215
370
     9
100
AcDb2dPolyline
 66
     1
 10
0.0
 20
0.0
 30
0.0
  0
VERTEX
  5
2D2
330
2D1
100
AcDbEntity
  8
Livello 1
 62
     7
420
 16777215
370
     9
100
AcDbVertex
100
AcDb2dVertex
 10
79.83646657431348
 20
-92.02704192132643
 30
0.0
  0
VERTEX
  5
2D3
330
2D1
100
AcDbEntity
  8
Livello 1
 62
     7
420
 16777215
370
     9
100
AcDbVertex
100
AcDb2dVertex
 10
79.83646657431348
 20
-77.8143816472129
 30
0.0
  0
SEQEND
  5
2D4
330
2D1
100
AcDbEntity
  8
Livello 1
 62
     7
420
 16777215
370
     9
  0
POLYLINE
  5
2D5
330
1F
100
AcDbEntity
  8
Livello 1
 62
     7
420
 16777215
370
     9
100
AcDb2dPolyline
 66
     1
 10
0.0
 20
0.0
 30
0.0
  0
VERTEX
  5
2D6
330
2D5
100
AcDbEntity
  8
Livello 1
 62
     7
420
 16777215
370
     9
100
AcDbVertex
100
AcDb2dVertex
 10
49.63918345582115
 20
-79.23099609130342
 30
0.0
  0
VERTEX
  5
2D7
330
2D5
100
AcDbEntity
  8
Livello 1
 62
     7
420
 16777215
370
     9
100
AcDbVertex
100
AcDb2dVertex
 10
79.83646657431348
 20
-79.23099609130342
 30
0.0
  0
SEQEND
  5
2D8
330
2D5
100
AcDbEntity
  8
Livello 1
 62
     7
420
 16777215
370
     9
  0
MTEXT
  5
2D9
330
1F
100
AcDbEntity
  8
Livello 1
 62
     7
420
 16777215
100
AcDbMText
 10
62.11007621060096
 20
-78.15216602914766
 30
0.0
 40
2.247899999438025
 41
0.0
 46
0.0
 71
     7
 72
     1
  1
\fHelvetica|b0|i0|c0|p34;\W1;345
 73
     1
 44
1.0
  0
POLYLINE
  5
2DA
330
1F
100
AcDbEntity
  8
Livello 1
370
     0
100
AcDb2dPolyline
 66
     1
 10
0.0
 20
0.0
 30
0.0
  0
VERTEX
  5
2DB
330
2DA
100
AcDbEntity
  8
Livello 1
370
     0
100
AcDbVertex
100
AcDb2dVertex
 10
90.84063053284548
 20
-95.81004509626906
 30
0.0
  0
VERTEX
  5
2DC
330
2DA
100
AcDbEntity
  8
Livello 1
370
     0
100
AcDbVertex
100
AcDb2dVertex
 10
90.43909658159531
 20
-94.10888926334249
 30
0.0
  0
VERTEX
  5
2DD
330
2DA
100
AcDbEntity
  8
Livello 1
370
     0
100
AcDbVertex
100
AcDb2dVertex
 10
90.43909658159531
 20
-94.10888926334249
 30
0.0
  0
VERTEX
  5
2DE
330
2DA
100
AcDbEntity
  8
Livello 1
370
     0
100
AcDbVertex
100
AcDb2dVertex
 10
90.03738853628818
 20
-95.81004509626906
 30
0.0
  0
VERTEX
  5
2DF
330
2DA
100
AcDbEntity
  8
Livello 1
370
     0
100
AcDbVertex
100
AcDb2dVertex
 10
90.03738853628818
 20
-95.81004509626906
 30
0.0
  0
VERTEX
  5
2E0
330
2DA
100
AcDbEntity
  8
Livello 1
370
     0
100
AcDbVertex
100
AcDb2dVertex
 10
90.84063053284548
 20
-95.81004509626906
 30
0.0
  0
VERTEX
  5
2E1
330
2DA
100
AcDbEntity
  8
Livello 1
370
     0
100
AcDbVertex
100
AcDb2dVertex
 10
90.84063053284548
 20
-95.81004509626906
 30
0.0
  0
SEQEND
  5
2E3
330
2DA
100
AcDbEntity
  8
Livello 1
370
     0
  0
HATCH
  5
2E2
330
1F
100
AcDbEntity
  8
Livello 1
 62
     7
420
 16777215
100
AcDbHatch
 10
0.0
 20
0.0
 30
0.0
210
0.0
220
0.0
230
1.0
  2
SOLID
 70
     1
 71
     0
 91
        1
 92
        1
 93
        3
 72
     1
 10
90.84063053284548
 20
-95.81004509626906
 11
90.43909658159531
 21
-94.10888926334249
 72
     1
 10
90.43909658159531
 20
-94.10888926334249
 11
90.03738853628818
 21
-95.81004509626906
 72
     1
 10
90.03738853628818
 20
-95.81004509626906
 11
90.84063053284548
 21
-95.81004509626906
 97
        0
 75
     0
 76
     1
 98
        0
  0
POLYLINE
  5
2E4
330
1F
100
AcDbEntity
  8
Livello 1
370
     0
100
AcDb2dPolyline
 66
     1
 10
0.0
 20
0.0
 30
0.0
  0
VERTEX
  5
2E5
330
2E4
100
AcDbEntity
  8
Livello 1
370
     0
100
AcDbVertex
100
AcDb2dVertex
 10
90.84063053284548
 20
-79.37637581348913
 30
0.0
  0
VERTEX
  5
2E6
330
2E4
100
AcDbEntity
  8
Livello 1
370
     0
100
AcDbVertex
100
AcDb2dVertex
 10
90.03738853628818
 20
-79.37637581348913
 30
0.0
  0
VERTEX
  5
2E7
330
2E4
100
AcDbEntity
  8
Livello 1
370
     0
100
AcDbVertex
100
AcDb2dVertex
 10
90.03738853628818
 20
-79.37637581348913
 30
0.0
  0
VERTEX
  5
2E8
330
2E4
100
AcDbEntity
  8
Livello 1
370
     0
100
AcDbVertex
100
AcDb2dVertex
 10
90.43909658159531
 20
-81.78313164622072
 30
0.0
  0
VERTEX
  5
2E9
330
2E4
100
AcDbEntity
  8
Livello 1
370
     0
100
AcDbVertex
100
AcDb2dVertex
 10
90.43909658159531
 20
-81.78313164622072
 30
0.0
  0
VERTEX
  5
2EA
330
2E4
100
AcDbEntity
  8
Livello 1
370
     0
100
AcDbVertex
100
AcDb2dVertex
 10
90.84063053284548
 20
-79.37637581348913
 30
0.0
  0
VERTEX
  5
2EB
330
2E4
100
AcDbEntity
  8
Livello 1
370
     0
100
AcDbVertex
100
AcDb2dVertex
 10
90.84063053284548
 20
-79.37637581348913
 30
0.0
  0
SEQEND
  5
2ED
330
2E4
100
AcDbEntity
  8
Livello 1
370
     0
  0
HATCH
  5
2EC
330
1F
100
AcDbEntity
  8
Livello 1
 62
     7
420
 16777215
100
AcDbHatch
 10
0.0
 20
0.0
 30
0.0
210
0.0
220
0.0
230
1.0
  2
SOLID
 70
     1
 71
     0
 91
        1
 92
        1
 93
        3
 72
     1
 10
90.84063053284548
 20
-79.37637581348913
 11
90.03738853628818
 21
-79.37637581348913
 72
     1
 10
90.03738853628818
 20
-79.37637581348913
 11
90.43909658159531
 21
-81.78313164622072
 72
     1
 10
90.43909658159531
 20
-81.78313164622072
 11
90.84063053284548
 21
-79.37637581348913
 97
        0
 75
     0
 76
     1
 98
        0
  0
POLYLINE
  5
2EE
330
1F
100
AcDbEntity
  8
Livello 1
 62
     7
420
 16777215
370
     9
100
AcDb2dPolyline
 66
     1
 10
0.0
 20
0.0
 30
0.0
  0
VERTEX
  5
2EF
330
2EE
100
AcDbEntity
  8
Livello 1
 62
     7
420
 16777215
370
     9
100
AcDbVertex
100
AcDb2dVertex
 10
80.30188628466153
 20
-94.10888921085471
 30
0.0
  0
VERTEX
  5
2F0
330
2EE
100
AcDbEntity
  8
Livello 1
 62
     7
420
 16777215
370
     9
100
AcDbVertex
100
AcDb2dVertex
 10
91.85486664370302
 20
-94.10888921085471
 30
0.0
  0
SEQEND
  5
2F1
330
2EE
100
AcDbEntity
  8
Livello 1
 62
     7
420
 16777215
370
     9
  0
POLYLINE
  5
2F2
330
1F
100
AcDbEntity
  8
Livello 1
 62
     7
420
 16777215
370
     9
100
AcDb2dPolyline
 66
     1
 10
0.0
 20
0.0
 30
0.0
  0
VERTEX
  5
2F3
330
2F2
100
AcDbEntity
  8
Livello 1
 62
     7
420
 16777215
370
     9
100
AcDbVertex
100
AcDb2dVertex
 10
82.85920760830773
 20
-81.78313164622072
 30
0.0
  0
VERTEX
  5
2F4
330
2F2
100
AcDbEntity
  8
Livello 1
 62
     7
420
 16777215
370
     9
100
AcDbVertex
100
AcDb2dVertex
 10
91.85486664370302
 20
-81.78313164622072
 30
0.0
  0
SEQEND
  5
2F5
330
2F2
100
AcDbEntity
  8
Livello 1
 62
     7
420
 16777215
370
     9
  0
POLYLINE
  5
2F6
330
1F
100
AcDbEntity
  8
Livello 1
 62
     7
420
 16777215
370
     9
100
AcDb2dPolyline
 66
     1
 10
0.0
 20
0.0
 30
0.0
  0
VERTEX
  5
2F7
330
2F6
100
AcDbEntity
  8
Livello 1
 62
     7
420
 16777215
370
     9
100
AcDbVertex
100
AcDb2dVertex
 10
90.43909658159531
 20
-96.45389080914532
 30
0.0
  0
VERTEX
  5
2F8
330
2F6
100
AcDbEntity
  8
Livello 1
 62
     7
420
 16777215
370
     9
100
AcDbVertex
100
AcDb2dVertex
 10
90.43909658159531
 20
-78.73355331363132
 30
0.0
  0
SEQEND
  5
2F9
330
2F6
100
AcDbEntity
  8
Livello 1
 62
     7
420
 16777215
370
     9
  0
MTEXT
  5
2FA
330
1F
100
AcDbEntity
  8
Livello 1
 62
     7
420
 16777215
100
AcDbMText
 10
89.7313015183658
 20
-90.52438403091709
 30
0.0
 40
2.247899999438025
 41
0.0
 46
0.0
 71
     7
 72
     1
  1
\fHelvetica|b0|i0|c0|p34;\W1;120
 11
6.123233995736766E-17
 21
1.0
 31
0.0
 73
     1
 44
1.0
  0
POLYLINE
  5
2FB
330
1F
100
AcDbEntity
  8
Livello 1
 62
     7
420
 16777215
370
     9
100
AcDb2dPolyline
 66
     1
 10
0.0
 20
0.0
 30
0.0
  0
VERTEX
  5
2FC
330
2FB
100
AcDbEntity
  8
Livello 1
 62
     7
420
 16777215
370
     9
100
AcDbVertex
100
AcDb2dVertex
 10
77.33534274923326
 20
-190.0200810636063
 30
0.0
  0
VERTEX
  5
2FD
330
2FB
100
AcDbEntity
  8
Livello 1
 62
     7
420
 16777215
370
     9
100
AcDbVertex
100
AcDb2dVertex
 10
68.29124964663396
 20
-190.0200810636063
 30
0.0
  0
SEQEND
  5
2FE
330
2FB
100
AcDbEntity
  8
Livello 1
 62
     7
420
 16777215
370
     9
  0
POLYLINE
  5
2FF
330
1F
100
AcDbEntity
  8
Livello 1
 62
     7
420
 16777215
370
     9
100
AcDb2dPolyline
 66
     1
 10
0.0
 20
0.0
 30
0.0
  0
VERTEX
  5
300
330
2FF
100
AcDbEntity
  8
Livello 1
 62
     7
420
 16777215
370
     9
100
AcDbVertex
100
AcDb2dVertex
 10
61.25671982609977
 20
-190.0200810636063
 30
0.0
  0
VERTEX
  5
301
330
2FF
100
AcDbEntity
  8
Livello 1
 62
     7
420
 16777215
370
     9
100
AcDbVertex
100
AcDb2dVertex
 10
52.21266200127735
 20
-190.0200810636063
 30
0.0
  0
SEQEND
  5
302
330
2FF
100
AcDbEntity
  8
Livello 1
 62
     7
420
 16777215
370
     9
  0
SPLINE
  5
303
330
1F
100
AcDbEntity
  8
Livello 1
 62
     7
420
 16777215
370
     9
100
AcDbSpline
210
0.0
220
0.0
230
1.0
 70
     8
 71
     3
 72
    11
 73
     7
 74
     0
 42
0.0000000001
 43
0.0000000001
 12
1.0
 22
0.0
 32
0.0
 13
1.0
 23
0.0
 33
0.0
 40
0.0
 40
0.0
 40
0.0
 40
0.0
 40
1.0
 40
1.0
 40
1.0
 40
2.0
 40
2.0
 40
2.0
 40
2.0
 10
34.54742193580748
 20
-189.5185016192872
 30
0.0
 10
34.54742193580748
 20
-189.795467452551
 30
0.0
 10
34.7723883246402
 20
-190.0200810636063
 30
0.0
 10
35.0502361023484
 20
-190.0200810636063
 30
0.0
 10
35.0502361023484
 20
-190.0200810636063
 30
0.0
 10
35.0502361023484
 20
-190.0200810636063
 30
0.0
 10
35.0502361023484
 20
-190.0200810636063
 30
0.0
  0
POLYLINE
  5
304
330
1F
100
AcDbEntity
  8
Livello 1
 62
     7
420
 16777215
370
     9
100
AcDb2dPolyline
 66
     1
 10
0.0
 20
0.0
 30
0.0
  0
VERTEX
  5
305
330
304
100
AcDbEntity
  8
Livello 1
 62
     7
420
 16777215
370
     9
100
AcDbVertex
100
AcDb2dVertex
 10
48.17586127093139
 20
-176.9566494002051
 30
0.0
  0
VERTEX
  5
306
330
304
100
AcDbEntity
  8
Livello 1
 62
     7
420
 16777215
370
     9
100
AcDbVertex
100
AcDb2dVertex
 10
81.37179070181044
 20
-176.9566494002051
 30
0.0
  0
SEQEND
  5
307
330
304
100
AcDbEntity
  8
Livello 1
 62
     7
420
 16777215
370
     9
  0
POLYLINE
  5
308
330
1F
100
AcDbEntity
  8
Livello 1
 62
     7
420
 16777215
370
     9
100
AcDb2dPolyline
 66
     1
 10
0.0
 20
0.0
 30
0.0
  0
VERTEX
  5
309
330
308
100
AcDbEntity
  8
Livello 1
 62
     7
420
 16777215
370
     9
100
AcDbVertex
100
AcDb2dVertex
 10
81.37179070181044
 20
-176.9566494002051
 30
0.0
  0
VERTEX
  5
30A
330
308
100
AcDbEntity
  8
Livello 1
 62
     7
420
 16777215
370
     9
100
AcDbVertex
100
AcDb2dVertex
 10
94.03661843425932
 20
-176.9566494002051
 30
0.0
  0
SEQEND
  5
30B
330
308
100
AcDbEntity
  8
Livello 1
 62
     7
420
 16777215
370
     9
  0
POLYLINE
  5
30C
330
1F
100
AcDbEntity
  8
Livello 1
 62
     7
420
 16777215
370
     9
100
AcDb2dPolyline
 66
     1
 10
0.0
 20
0.0
 30
0.0
  0
VERTEX
  5
30D
330
30C
100
AcDbEntity
  8
Livello 1
 62
     7
420
 16777215
370
     9
100
AcDbVertex
100
AcDb2dVertex
 10
35.53202381572478
 20
-176.9566494002051
 30
0.0
  0
VERTEX
  5
30E
330
30C
100
AcDbEntity
  8
Livello 1
 62
     7
420
 16777215
370
     9
100
AcDbVertex
100
AcDb2dVertex
 10
48.17586127093139
 20
-176.9566494002051
 30
0.0
  0
SEQEND
  5
30F
330
30C
100
AcDbEntity
  8
Livello 1
 62
     7
420
 16777215
370
     9
  0
POLYLINE
  5
310
330
1F
100
AcDbEntity
  8
Livello 1
 62
     7
420
 16777215
370
     9
100
AcDb2dPolyline
 66
     1
 10
0.0
 20
0.0
 30
0.0
  0
VERTEX
  5
311
330
310
100
AcDbEntity
  8
Livello 1
 62
     7
420
 16777215
370
     9
100
AcDbVertex
100
AcDb2dVertex
 10
52.21266200127735
 20
-190.0200810636063
 30
0.0
  0
VERTEX
  5
312
330
310
100
AcDbEntity
  8
Livello 1
 62
     7
420
 16777215
370
     9
100
AcDbVertex
100
AcDb2dVertex
 10
49.52805845865618
 20
-190.0200810636063
 30
0.0
  0
SEQEND
  5
313
330
310
100
AcDbEntity
  8
Livello 1
 62
     7
420
 16777215
370
     9
  0
POLYLINE
  5
314
330
1F
100
AcDbEntity
  8
Livello 1
 62
     7
420
 16777215
370
     9
100
AcDb2dPolyline
 66
     1
 10
0.0
 20
0.0
 30
0.0
  0
VERTEX
  5
315
330
314
100
AcDbEntity
  8
Livello 1
 62
     7
420
 16777215
370
     9
100
AcDbVertex
100
AcDb2dVertex
 10
80.01991101407755
 20
-190.0200810636063
 30
0.0
  0
VERTEX
  5
316
330
314
100
AcDbEntity
  8
Livello 1
 62
     7
420
 16777215
370
     9
100
AcDbVertex
100
AcDb2dVertex
 10
77.33534274923326
 20
-190.0200810636063
 30
0.0
  0
SEQEND
  5
317
330
314
100
AcDbEntity
  8
Livello 1
 62
     7
420
 16777215
370
     9
  0
POLYLINE
  5
318
330
1F
100
AcDbEntity
  8
Livello 1
 62
     7
420
 16777215
370
     9
100
AcDb2dPolyline
 66
     1
 10
0.0
 20
0.0
 30
0.0
  0
VERTEX
  5
319
330
318
100
AcDbEntity
  8
Livello 1
 62
     7
420
 16777215
370
     9
100
AcDbVertex
100
AcDb2dVertex
 10
62.26164257823983
 20
-190.0200810636063
 30
0.0
  0
VERTEX
  5
31A
330
318
100
AcDbEntity
  8
Livello 1
 62
     7
420
 16777215
370
     9
100
AcDbVertex
100
AcDb2dVertex
 10
67.28597411672513
 20
-190.0200810636063
 30
0.0
  0
SEQEND
  5
31B
330
318
100
AcDbEntity
  8
Livello 1
 62
     7
420
 16777215
370
     9
  0
POLYLINE
  5
31C
330
1F
100
AcDbEntity
  8
Livello 1
 62
     7
420
 16777215
370
     9
100
AcDb2dPolyline
 66
     1
 10
0.0
 20
0.0
 30
0.0
  0
VERTEX
  5
31D
330
31C
100
AcDbEntity
  8
Livello 1
 62
     7
420
 16777215
370
     9
100
AcDbVertex
100
AcDb2dVertex
 10
68.29124964663396
 20
-190.0200810636063
 30
0.0
  0
VERTEX
  5
31E
330
31C
100
AcDbEntity
  8
Livello 1
 62
     7
420
 16777215
370
     9
100
AcDbVertex
100
AcDb2dVertex
 10
67.28597411672513
 20
-190.0200810636063
 30
0.0
  0
SEQEND
  5
31F
330
31C
100
AcDbEntity
  8
Livello 1
 62
     7
420
 16777215
370
     9
  0
POLYLINE
  5
320
330
1F
100
AcDbEntity
  8
Livello 1
 62
     7
420
 16777215
370
     9
100
AcDb2dPolyline
 66
     1
 10
0.0
 20
0.0
 30
0.0
  0
VERTEX
  5
321
330
320
100
AcDbEntity
  8
Livello 1
 62
     7
420
 16777215
370
     9
100
AcDbVertex
100
AcDb2dVertex
 10
94.41835925785364
 20
-176.9566494002051
 30
0.0
  0
VERTEX
  5
322
330
320
100
AcDbEntity
  8
Livello 1
 62
     7
420
 16777215
370
     9
100
AcDbVertex
100
AcDb2dVertex
 10
94.03661843425932
 20
-176.9566494002051
 30
0.0
  0
SEQEND
  5
323
330
320
100
AcDbEntity
  8
Livello 1
 62
     7
420
 16777215
370
     9
  0
SPLINE
  5
324
330
1F
100
AcDbEntity
  8
Livello 1
 62
     7
420
 16777215
370
     9
100
AcDbSpline
210
0.0
220
0.0
230
1.0
 70
     8
 71
     3
 72
    11
 73
     7
 74
     0
 42
0.0000000001
 43
0.0000000001
 12
1.0
 22
0.0
 32
0.0
 13
1.0
 23
0.0
 33
0.0
 40
0.0
 40
0.0
 40
0.0
 40
0.0
 40
1.0
 40
1.0
 40
1.0
 40
2.0
 40
2.0
 40
2.0
 40
2.0
 10
95.02143285357906
 20
-177.5595466222768
 30
0.0
 10
95.02143285357906
 20
-177.2263832890267
 30
0.0
 10
94.751310916026
 20
-176.9566494002051
 30
0.0
 10
94.41835925785364
 20
-176.9566494002051
 30
0.0
 10
94.41835925785364
 20
-176.9566494002051
 30
0.0
 10
94.41835925785364
 20
-176.9566494002051
 30
0.0
 10
94.41835925785364
 20
-176.9566494002051
 30
0.0
  0
POLYLINE
  5
325
330
1F
100
AcDbEntity
  8
Livello 1
 62
     7
420
 16777215
370
     9
100
AcDb2dPolyline
 66
     1
 10
0.0
 20
0.0
 30
0.0
  0
VERTEX
  5
326
330
325
100
AcDbEntity
  8
Livello 1
 62
     7
420
 16777215
370
     9
100
AcDbVertex
100
AcDb2dVertex
 10
94.51844231085586
 20
-190.0200810636063
 30
0.0
  0
VERTEX
  5
327
330
325
100
AcDbEntity
  8
Livello 1
 62
     7
420
 16777215
370
     9
100
AcDbVertex
100
AcDb2dVertex
 10
80.01991101407755
 20
-190.0200810636063
 30
0.0
  0
SEQEND
  5
328
330
325
100
AcDbEntity
  8
Livello 1
 62
     7
420
 16777215
370
     9
  0
POLYLINE
  5
329
330
1F
100
AcDbEntity
  8
Livello 1
 62
     7
420
 16777215
370
     9
100
AcDb2dPolyline
 66
     1
 10
0.0
 20
0.0
 30
0.0
  0
VERTEX
  5
32A
330
329
100
AcDbEntity
  8
Livello 1
 62
     7
420
 16777215
370
     9
100
AcDbVertex
100
AcDb2dVertex
 10
95.02143285357906
 20
-189.5185016192872
 30
0.0
  0
VERTEX
  5
32B
330
329
100
AcDbEntity
  8
Livello 1
 62
     7
420
 16777215
370
     9
100
AcDbVertex
100
AcDb2dVertex
 10
95.02143285357906
 20
-177.5595466222768
 30
0.0
  0
SEQEND
  5
32C
330
329
100
AcDbEntity
  8
Livello 1
 62
     7
420
 16777215
370
     9
  0
SPLINE
  5
32D
330
1F
100
AcDbEntity
  8
Livello 1
 62
     7
420
 16777215
370
     9
100
AcDbSpline
210
0.0
220
0.0
230
1.0
 70
     8
 71
     3
 72
    11
 73
     7
 74
     0
 42
0.0000000001
 43
0.0000000001
 12
1.0
 22
0.0
 32
0.0
 13
1.0
 23
0.0
 33
0.0
 40
0.0
 40
0.0
 40
0.0
 40
0.0
 40
1.0
 40
1.0
 40
1.0
 40
2.0
 40
2.0
 40
2.0
 40
2.0
 10
94.51844231085586
 20
-190.0200810636063
 30
0.0
 10
94.79629008154515
 20
-190.0200810636063
 30
0.0
 10
95.02143285357906
 20
-189.795467452551
 30
0.0
 10
95.02143285357906
 20
-189.5185016192872
 30
0.0
 10
95.02143285357906
 20
-189.5185016192872
 30
0.0
 10
95.02143285357906
 20
-189.5185016192872
 30
0.0
 10
95.02143285357906
 20
-189.5185016192872
 30
0.0
  0
POLYLINE
  5
32E
330
1F
100
AcDbEntity
  8
Livello 1
 62
     7
420
 16777215
370
     9
100
AcDb2dPolyline
 66
     1
 10
0.0
 20
0.0
 30
0.0
  0
VERTEX
  5
32F
330
32E
100
AcDbEntity
  8
Livello 1
 62
     7
420
 16777215
370
     9
100
AcDbVertex
100
AcDb2dVertex
 10
62.26164257823983
 20
-190.0200810636063
 30
0.0
  0
VERTEX
  5
330
330
32E
100
AcDbEntity
  8
Livello 1
 62
     7
420
 16777215
370
     9
100
AcDbVertex
100
AcDb2dVertex
 10
61.25671982609977
 20
-190.0200810636063
 30
0.0
  0
SEQEND
  5
331
330
32E
100
AcDbEntity
  8
Livello 1
 62
     7
420
 16777215
370
     9
  0
POLYLINE
  5
332
330
1F
100
AcDbEntity
  8
Livello 1
 62
     7
420
 16777215
370
     9
100
AcDb2dPolyline
 66
     1
 10
0.0
 20
0.0
 30
0.0
  0
VERTEX
  5
333
330
332
100
AcDbEntity
  8
Livello 1
 62
     7
420
 16777215
370
     9
100
AcDbVertex
100
AcDb2dVertex
 10
35.53202381572478
 20
-176.9566494002051
 30
0.0
  0
VERTEX
  5
334
330
332
100
AcDbEntity
  8
Livello 1
 62
     7
420
 16777215
370
     9
100
AcDbVertex
100
AcDb2dVertex
 10
35.15031915787924
 20
-176.9566494002051
 30
0.0
  0
SEQEND
  5
335
330
332
100
AcDbEntity
  8
Livello 1
 62
     7
420
 16777215
370
     9
  0
SPLINE
  5
336
330
1F
100
AcDbEntity
  8
Livello 1
 62
     7
420
 16777215
370
     9
100
AcDbSpline
210
0.0
220
0.0
230
1.0
 70
     8
 71
     3
 72
    11
 73
     7
 74
     0
 42
0.0000000001
 43
0.0000000001
 12
1.0
 22
0.0
 32
0.0
 13
1.0
 23
0.0
 33
0.0
 40
0.0
 40
0.0
 40
0.0
 40
0.0
 40
1.0
 40
1.0
 40
1.0
 40
2.0
 40
2.0
 40
2.0
 40
2.0
 10
35.15031915787924
 20
-176.9566494002051
 30
0.0
 10
34.81715582462908
 20
-176.9566494002051
 30
0.0
 10
34.54742193580748
 20
-177.2263832890267
 30
0.0
 10
34.54742193580748
 20
-177.5595466222768
 30
0.0
 10
34.54742193580748
 20
-177.5595466222768
 30
0.0
 10
34.54742193580748
 20
-177.5595466222768
 30
0.0
 10
34.54742193580748
 20
-177.5595466222768
 30
0.0
  0
POLYLINE
  5
337
330
1F
100
AcDbEntity
  8
Livello 1
 62
     7
420
 16777215
370
     9
100
AcDb2dPolyline
 66
     1
 10
0.0
 20
0.0
 30
0.0
  0
VERTEX
  5
338
330
337
100
AcDbEntity
  8
Livello 1
 62
     7
420
 16777215
370
     9
100
AcDbVertex
100
AcDb2dVertex
 10
49.52805845865618
 20
-190.0200810636063
 30
0.0
  0
VERTEX
  5
339
330
337
100
AcDbEntity
  8
Livello 1
 62
     7
420
 16777215
370
     9
100
AcDbVertex
100
AcDb2dVertex
 10
35.0502361023484
 20
-190.0200810636063
 30
0.0
  0
SEQEND
  5
33A
330
337
100
AcDbEntity
  8
Livello 1
 62
     7
420
 16777215
370
     9
  0
POLYLINE
  5
33B
330
1F
100
AcDbEntity
  8
Livello 1
 62
     7
420
 16777215
370
     9
100
AcDb2dPolyline
 66
     1
 10
0.0
 20
0.0
 30
0.0
  0
VERTEX
  5
33C
330
33B
100
AcDbEntity
  8
Livello 1
 62
     7
420
 16777215
370
     9
100
AcDbVertex
100
AcDb2dVertex
 10
34.54742193580748
 20
-177.5595466222768
 30
0.0
  0
VERTEX
  5
33D
330
33B
100
AcDbEntity
  8
Livello 1
 62
     7
420
 16777215
370
     9
100
AcDbVertex
100
AcDb2dVertex
 10
34.54742193580748
 20
-189.5185016192872
 30
0.0
  0
SEQEND
  5
33E
330
33B
100
AcDbEntity
  8
Livello 1
 62
     7
420
 16777215
370
     9
  0
INSERT
  5
341
330
1F
100
AcDbEntity
  8
montaggio
100
AcDbBlockReference
  2
block 2
 10
0.0
 20
0.0
 30
0.0
  0
POLYLINE
  5
359
330
1F
100
AcDbEntity
  8
montaggio
370
     0
100
AcDb2dPolyline
 66
     1
 10
0.0
 20
0.0
 30
0.0
  0
VERTEX
  5
35A
330
359
100
AcDbEntity
  8
montaggio
370
     0
100
AcDbVertex
100
AcDb2dVertex
 10
144.9999179674106
 20
-194.9999980068056
 30
0.0
  0
VERTEX
  5
35B
330
359
100
AcDbEntity
  8
montaggio
370
     0
100
AcDbVertex
100
AcDb2dVertex
 10
-14.99993471847236
 20
-194.9999980068056
 30
0.0
  0
VERTEX
  5
35C
330
359
100
AcDbEntity
  8
montaggio
370
     0
100
AcDbVertex
100
AcDb2dVertex
 10
-14.99993471847236
 20
-190.0001138413891
 30
0.0
  0
VERTEX
  5
35D
330
359
100
AcDbEntity
  8
montaggio
370
     0
100
AcDbVertex
100
AcDb2dVertex
 10
144.9999179674106
 20
-190.0001138413891
 30
0.0
  0
VERTEX
  5
35E
330
359
100
AcDbEntity
  8
montaggio
370
     0
100
AcDbVertex
100
AcDb2dVertex
 10
144.9999179674106
 20
-194.9999980068056
 30
0.0
  0
SEQEND
  5
360
330
359
100
AcDbEntity
  8
montaggio
370
     0
  0
HATCH
  5
35F
330
1F
100
AcDbEntity
  8
montaggio
 62
     7
420
 16777215
100
AcDbHatch
 10
0.0
 20
0.0
 30
0.0
210
0.0
220
0.0
230
1.0
  2
SOLID
 70
     1
 71
     0
 91
        1
 92
        1
 93
        4
 72
     1
 10
144.9999179674106
 20
-194.9999980068056
 11
-14.99993471847236
 21
-194.9999980068056
 72
     1
 10
-14.99993471847236
 20
-194.9999980068056
 11
-14.99993471847236
 21
-190.0001138413891
 72
     1
 10
-14.99993471847236
 20
-190.0001138413891
 11
144.9999179674106
 21
-190.0001138413891
 72
     1
 10
144.9999179674106
 20
-190.0001138413891
 11
144.9999179674106
 21
-194.9999980068056
 97
        0
 75
     2
 76
     1
 98
        0
  0
POLYLINE
  5
361
330
1F
100
AcDbEntity
  8
montaggio
 62
   178
420
        0
370
    70
100
AcDb2dPolyline
 66
     1
 10
0.0
 20
0.0
 30
0.0
  0
VERTEX
  5
362
330
361
100
AcDbEntity
  8
montaggio
 62
   178
420
        0
370
    70
100
AcDbVertex
100
AcDb2dVertex
 10
-14.99993471847236
 20
-259.6499477128655
 30
0.0
  0
VERTEX
  5
363
330
361
100
AcDbEntity
  8
montaggio
 62
   178
420
        0
370
    70
100
AcDbVertex
100
AcDb2dVertex
 10
144.9999179674106
 20
-259.6499477128655
 30
0.0
  0
SEQEND
  5
364
330
361
100
AcDbEntity
  8
montaggio
 62
   178
420
        0
370
    70
  0
POLYLINE
  5
365
330
1F
100
AcDbEntity
  8
montaggio
 62
     7
420
 16777215
370
    18
100
AcDb2dPolyline
 66
     1
 10
0.0
 20
0.0
 30
0.0
  0
VERTEX
  5
366
330
365
100
AcDbEntity
  8
montaggio
 62
     7
420
 16777215
370
    18
100
AcDbVertex
100
AcDb2dVertex
 10
87.4995758232554
 20
-209.999932725278
 30
0.0
  0
VERTEX
  5
367
330
365
100
AcDbEntity
  8
montaggio
 62
     7
420
 16777215
370
    18
100
AcDbVertex
100
AcDb2dVertex
 10
65.00001109486125
 20
-209.999932725278
 30
0.0
  0
SEQEND
  5
368
330
365
100
AcDbEntity
  8
montaggio
 62
     7
420
 16777215
370
    18
  0
POLYLINE
  5
369
330
1F
100
AcDbEntity
  8
montaggio
 62
     7
420
 16777215
370
    18
100
AcDb2dPolyline
 66
     1
 10
0.0
 20
0.0
 30
0.0
  0
VERTEX
  5
36A
330
369
100
AcDbEntity
  8
montaggio
 62
     7
420
 16777215
370
    18
100
AcDbVertex
100
AcDb2dVertex
 10
82.49951539526201
 20
-213.9996918909449
 30
0.0
  0
VERTEX
  5
36B
330
369
100
AcDbEntity
  8
montaggio
 62
     7
420
 16777215
370
    18
100
AcDbVertex
100
AcDb2dVertex
 10
82.49951539526201
 20
-209.9995799475002
 30
0.0
  0
SEQEND
  5
36C
330
369
100
AcDbEntity
  8
montaggio
 62
     7
420
 16777215
370
    18
  0
INSERT
  5
36E
330
1F
100
AcDbEntity
  8
montaggio
100
AcDbBlockReference
  2
block 4
 10
0.0
 20
0.0
 30
0.0
  0
INSERT
  5
37A
330
1F
100
AcDbEntity
  8
montaggio
100
AcDbBlockReference
  2
block 5
 10
0.0
 20
0.0
 30
0.0
  0
SPLINE
  5
37E
330
1F
100
AcDbEntity
  8
montaggio
 62
     7
420
 16777215
370
    18
100
AcDbSpline
210
0.0
220
0.0
230
1.0
 70
    11
 71
     3
 72
    17
 73
    13
 74
     0
 42
0.0000000001
 43
0.0000000001
 12
1.0
 22
0.0
 32
0.0
 13
1.0
 23
0.0
 33
0.0
 40
0.0
 40
0.0
 40
0.0
 40
0.0
 40
1.0
 40
1.0
 40
1.0
 40
2.0
 40
2.0
 40
2.0
 40
3.0
 40
3.0
 40
3.0
 40
4.0
 40
4.0
 40
4.0
 40
4.0
 10
61.00007399931402
 20
-210.0002855030557
 30
0.0
 10
61.00007399931402
 20
-207.7909441147188
 30
0.0
 10
62.79080923140634
 20
-206.0001735596111
 30
0.0
 10
65.00001109486125
 20
-206.0001735596111
 30
0.0
 10
67.20931550756974
 20
-206.0001735596111
 30
0.0
 10
69.00008601743893
 20
-207.7909441147188
 30
0.0
 10
69.00008601743893
 20
-210.0002855030557
 30
0.0
 10
69.00008601743893
 20
-212.2092741136143
 30
0.0
 10
67.20931550756974
 20
-214.000044668722
 30
0.0
 10
65.00001109486125
 20
-214.000044668722
 30
0.0
 10
62.79080923140634
 20
-214.000044668722
 30
0.0
 10
61.00007399931402
 20
-212.2092741136143
 30
0.0
 10
61.00007399931402
 20
-210.0002855030557
 30
0.0
  0
POLYLINE
  5
37F
330
1F
100
AcDbEntity
  8
montaggio
370
     0
100
AcDb2dPolyline
 66
     1
 10
0.0
 20
0.0
 30
0.0
  0
VERTEX
  5
380
330
37F
100
AcDbEntity
  8
montaggio
370
     0
100
AcDbVertex
100
AcDb2dVertex
 10
62.11816942891478
 20
-207.1180910593318
 30
0.0
  0
VERTEX
  5
381
330
37F
100
AcDbEntity
  8
montaggio
370
     0
100
AcDbVertex
100
AcDb2dVertex
 10
67.88199215707499
 20
-207.1180910593318
 30
0.0
  0
VERTEX
  5
382
330
37F
100
AcDbEntity
  8
montaggio
370
     0
100
AcDbVertex
100
AcDb2dVertex
 10
67.88199215707499
 20
-212.8820918912237
 30
0.0
  0
VERTEX
  5
383
330
37F
100
AcDbEntity
  8
montaggio
370
     0
100
AcDbVertex
100
AcDb2dVertex
 10
62.11816942891478
 20
-212.8820918912237
 30
0.0
  0
VERTEX
  5
384
330
37F
100
AcDbEntity
  8
montaggio
370
     0
100
AcDbVertex
100
AcDb2dVertex
 10
62.11816942891478
 20
-207.1180910593318
 30
0.0
  0
SEQEND
  5
386
330
37F
100
AcDbEntity
  8
montaggio
370
     0
  0
HATCH
  5
385
330
1F
100
AcDbEntity
  8
montaggio
 62
     7
420
 16777215
100
AcDbHatch
 10
0.0
 20
0.0
 30
0.0
210
0.0
220
0.0
230
1.0
  2
SOLID
 70
     1
 71
     0
 91
        1
 92
        1
 93
        4
 72
     1
 10
62.11816942891478
 20
-207.1180910593318
 11
67.88199215707499
 21
-207.1180910593318
 72
     1
 10
67.88199215707499
 20
-207.1180910593318
 11
67.88199215707499
 21
-212.8820918912237
 72
     1
 10
67.88199215707499
 20
-212.8820918912237
 11
62.11816942891478
 21
-212.8820918912237
 72
     1
 10
62.11816942891478
 20
-212.8820918912237
 11
62.11816942891478
 21
-207.1180910593318
 97
        0
 75
     2
 76
     1
 98
        0
  0
ENDSEC
  0
SECTION
  2
OBJECTS
  0
DICTIONARY
  5
C
330
0
100
AcDbDictionary
281
     1
  3
ACAD_GROUP
350
D
  3
ACAD_LAYOUT
350
1A
  3
ACAD_MATERIAL
350
3B
  3
ACAD_MLEADERSTYLE
350
388
  3
ACAD_MLINESTYLE
350
17
  3
ACAD_PLOTSETTINGS
350
19
  3
ACAD_PLOTSTYLENAME
350
E
  3
ACAD_TABLESTYLE
350
387
  3
ACAD_VISUALSTYLE
350
2A
  0
SUN
  5
3F
330
29
100
AcDbSun
 90
        1
290
     0
 63
     7
421
 16777215
 40
1.0
291
     1
 91
  2455826
 92
 54000000
292
     0
 70
     2
 71
   256
280
     1
  0
DICTIONARY
  5
D
102
{ACAD_REACTORS
330
C
102
}
330
C
100
AcDbDictionary
281
     1
  0
DICTIONARY
  5
1A
102
{ACAD_REACTORS
330
C
102
}
330
C
100
AcDbDictionary
281
     1
  3
Layout1
350
1E
  3
Layout2
350
26
  3
Model
350
22
  0
DICTIONARY
  5
3B
102
{ACAD_REACTORS
330
C
102
}
330
C
100
AcDbDictionary
281
     1
  3
ByBlock
350
3D
  3
ByLayer
350
3C
  3
Global
350
3E
  0
DICTIONARY
  5
388
102
{ACAD_REACTORS
330
C
102
}
330
C
100
AcDbDictionary
281
     1
  0
DICTIONARY
  5
17
102
{ACAD_REACTORS
330
C
102
}
330
C
100
AcDbDictionary
281
     1
  3
Standard
350
18
  0
DICTIONARY
  5
19
102
{ACAD_REACTORS
330
C
102
}
330
C
100
AcDbDictionary
281
     1
  0
ACDBDICTIONARYWDFLT
  5
E
102
{ACAD_REACTORS
330
C
102
}
330
C
100
AcDbDictionary
281
     1
  3
Normal
350
F
100
AcDbDictionaryWithDefault
340
F
  0
DICTIONARY
  5
387
102
{ACAD_REACTORS
330
C
102
}
330
C
100
AcDbDictionary
281
     1
  0
DICTIONARY
  5
2A
102
{ACAD_REACTORS
330
C
102
}
330
C
100
AcDbDictionary
281
     1
  3
2dWireframe
350
2F
  3
3D Hidden
350
31
  3
3dWireframe
350
30
  3
Basic
350
32
  3
Brighten
350
36
  3
ColorChange
350
3A
  3
Conceptual
350
34
  3
Dim
350
35
  3
Facepattern
350
39
  3
Flat
350
2B
  3
FlatWithEdges
350
2C
  3
Gouraud
350
2D
  3
GouraudWithEdges
350
2E
  3
Linepattern
350
38
  3
Realistic
350
33
  3
Thicken
350
37
  0
LAYOUT
  5
1E
102
{ACAD_REACTORS
330
1A
102
}
330
1A
100
AcDbPlotSettings
  1

  2
none_device
  4

  6

 40
0.0
 41
0.0
 42
0.0
 43
0.0
 44
0.0
 45
0.0
 46
0.0
 47
0.0
 48
0.0
 49
0.0
140
0.0
141
0.0
142
1.0
143
1.0
 70
   688
 72
     0
 73
     0
 74
     5
  7

 75
    16
 76
     0
 77
     2
 78
   300
147
1.0
148
0.0
149
0.0
100
AcDbLayout
  1
Layout1
 70
     1
 71
     1
 10
0.0
 20
0.0
 11
12.0
 21
9.0
 12
0.0
 22
0.0
 32
0.0
 14
1.000000000000000E+20
 24
1.000000000000000E+20
 34
1.000000000000000E+20
 15
-1.000000000000000E+20
 25
-1.000000000000000E+20
 35
-1.000000000000000E+20
146
0.0
 13
0.0
 23
0.0
 33
0.0
 16
1.0
 26
0.0
 36
0.0
 17
0.0
 27
1.0
 37
0.0
 76
     0
330
1B
  0
LAYOUT
  5
26
102
{ACAD_REACTORS
330
1A
102
}
330
1A
100
AcDbPlotSettings
  1

  2
none_device
  4

  6

 40
0.0
 41
0.0
 42
0.0
 43
0.0
 44
0.0
 45
0.0
 46
0.0
 47
0.0
 48
0.0
 49
0.0
140
0.0
141
0.0
142
1.0
143
1.0
 70
   688
 72
     0
 73
     0
 74
     5
  7

 75
    16
 76
     0
 77
     2
 78
   300
147
1.0
148
0.0
149
0.0
100
AcDbLayout
  1
Layout2
 70
     1
 71
     2
 10
0.0
 20
0.0
 11
0.0
 21
0.0
 12
0.0
 22
0.0
 32
0.0
 14
0.0
 24
0.0
 34
0.0
 15
0.0
 25
0.0
 35
0.0
146
0.0
 13
0.0
 23
0.0
 33
0.0
 16
1.0
 26
0.0
 36
0.0
 17
0.0
 27
1.0
 37
0.0
 76
     0
330
23
  0
LAYOUT
  5
22
102
{ACAD_REACTORS
330
1A
102
}
330
1A
100
AcDbPlotSettings
  1

  2
none_device
  4

  6

 40
0.0
 41
0.0
 42
0.0
 43
0.0
 44
0.0
 45
0.0
 46
0.0
 47
0.0
 48
0.0
 49
0.0
140
0.0
141
0.0
142
1.0
143
1.0
 70
  1712
 72
     0
 73
     0
 74
     0
  7

 75
     0
 76
     0
 77
     2
 78
   300
147
1.0
148
0.0
149
0.0
100
AcDbLayout
  1
Model
 70
     1
 71
     0
 10
0.0
 20
0.0
 11
12.0
 21
9.0
 12
0.0
 22
0.0
 32
0.0
 14
1.000000000000000E+20
 24
1.000000000000000E+20
 34
1.000000000000000E+20
 15
-1.000000000000000E+20
 25
-1.000000000000000E+20
 35
-1.000000000000000E+20
146
0.0
 13
0.0
 23
0.0
 33
0.0
 16
1.0
 26
0.0
 36
0.0
 17
0.0
 27
1.0
 37
0.0
 76
     0
330
1F
331
29
  0
MATERIAL
  5
3D
102
{ACAD_REACTORS
330
3B
102
}
330
3B
100
AcDbMaterial
  1
ByBlock
 72
     1
 94
      127
  0
MATERIAL
  5
3C
102
{ACAD_REACTORS
330
3B
102
}
330
3B
100
AcDbMaterial
  1
ByLayer
 72
     1
 94
      127
  0
MATERIAL
  5
3E
102
{ACAD_REACTORS
330
3B
102
}
330
3B
100
AcDbMaterial
  1
Global
 72
     1
 94
      127
  0
MLINESTYLE
  5
18
102
{ACAD_REACTORS
330
17
102
}
330
17
100
AcDbMlineStyle
  2
Standard
 70
     0
  3

 62
   256
 51
90.0
 52
90.0
 71
     2
 49
0.5
 62
   256
  6
BYLAYER
 49
-0.5
 62
   256
  6
BYLAYER
  0
ACDBPLACEHOLDER
  5
F
102
{ACAD_REACTORS
330
E
102
}
330
E
  0
VISUALSTYLE
  5
2F
102
{ACAD_REACTORS
330
2A
102
}
330
2A
100
AcDbVisualStyle
  2
2dWireframe
 70
     4
177
     2
291
     0
 71
     0
176
     1
 72
     2
176
     1
 73
     0
176
     1
 90
        0
176
     1
 40
-0.6
176
     1
 41
-30.0
176
     1
 62
     5
 63
     7
421
 16777215
176
     1
 74
     1
176
     1
 91
        4
176
     1
 64
     7
176
     1
 65
   257
176
     1
 75
     1
176
     1
175
     1
176
     1
 42
1.0
176
     1
 92
        0
176
     1
 66
   257
176
     1
 43
1.0
176
     1
 76
     1
176
     1
 77
     6
176
     1
 78
     2
176
     1
 67
     7
176
     1
 79
     5
176
     1
170
     0
176
     1
171
     0
176
     1
290
     0
176
     1
 93
        1
176
     1
 44
0.0
176
     1
173
     0
176
     1
  0
VISUALSTYLE
  5
31
102
{ACAD_REACTORS
330
2A
102
}
330
2A
100
AcDbVisualStyle
  2
3D Hidden
 70
     6
177
     2
291
     0
 71
     1
176
     1
 72
     2
176
     1
 73
     2
176
     1
 90
        0
176
     1
 40
-0.6
176
     1
 41
-30.0
176
     1
 62
     5
 63
     7
421
 16777215
176
     1
 74
     2
176
     1
 91
        2
176
     1
 64
     7
176
     1
 65
   257
176
     1
 75
     2
176
     1
175
     1
176
     1
 42
40.0
176
     1
 92
        0
176
     1
 66
   257
176
     1
 43
1.0
176
     1
 76
     1
176
     1
 77
     6
176
     1
 78
     2
176
     1
 67
     7
176
     1
 79
     3
176
     1
170
     0
176
     1
171
     0
176
     1
290
     0
176
     1
 93
        1
176
     1
 44
0.0
176
     1
173
     0
176
     1
  0
VISUALSTYLE
  5
30
102
{ACAD_REACTORS
330
2A
102
}
330
2A
100
AcDbVisualStyle
  2
3dWireframe
 70
     5
177
     2
291
     0
 71
     0
176
     1
 72
     2
176
     1
 73
     0
176
     1
 90
        0
176
     1
 40
-0.6
176
     1
 41
-30.0
176
     1
 62
     5
 63
     7
421
 16777215
176
     1
 74
     1
176
     1
 91
        4
176
     1
 64
     7
176
     1
 65
   257
176
     1
 75
     1
176
     1
175
     1
176
     1
 42
1.0
176
     1
 92
        0
176
     1
 66
   257
176
     1
 43
1.0
176
     1
 76
     1
176
     1
 77
     6
176
     1
 78
     2
176
     1
 67
     7
176
     1
 79
     5
176
     1
170
     0
176
     1
171
     0
176
     1
290
     0
176
     1
 93
        1
176
     1
 44
0.0
176
     1
173
     0
176
     1
  0
VISUALSTYLE
  5
32
102
{ACAD_REACTORS
330
2A
102
}
330
2A
100
AcDbVisualStyle
  2
Basic
 70
     7
177
     2
291
     1
 71
     1
176
     1
 72
     0
176
     1
 73
     1
176
     1
 90
        0
176
     1
 40
-0.6
176
     1
 41
-30.0
176
     1
 62
     5
 63
     7
421
 16777215
176
     1
 74
     0
176
     1
 91
        4
176
     1
 64
     7
176
     1
 65
   257
176
     1
 75
     1
176
     1
175
     1
176
     1
 42
1.0
176
     1
 92
        8
176
     1
 66
     7
176
     1
 43
1.0
176
     1
 76
     1
176
     1
 77
     6
176
     1
 78
     2
176
     1
 67
     7
176
     1
 79
     5
176
     1
170
     0
176
     1
171
     0
176
     1
290
     0
176
     1
 93
        1
176
     1
 44
0.0
176
     1
173
     0
176
     1
  0
VISUALSTYLE
  5
36
102
{ACAD_REACTORS
330
2A
102
}
330
2A
100
AcDbVisualStyle
  2
Brighten
 70
    12
177
     2
291
     1
 71
     2
176
     1
 72
     2
176
     1
 73
     0
176
     1
 90
        0
176
     1
 40
-0.6
176
     1
 41
-30.0
176
     1
 62
     5
 63
     7
421
 16777215
176
     1
 74
     1
176
     1
 91
        4
176
     1
 64
     7
176
     1
 65
   257
176
     1
 75
     1
176
     1
175
     1
176
     1
 42
1.0
176
     1
 92
        8
176
     1
 66
     7
176
     1
 43
1.0
176
     1
 76
     1
176
     1
 77
     6
176
     1
 78
     2
176
     1
 67
     7
176
     1
 79
     5
176
     1
170
     0
176
     1
171
     0
176
     1
290
     0
176
     1
 93
        1
176
     1
 44
50.0
176
     1
173
     0
176
     1
  0
VISUALSTYLE
  5
3A
102
{ACAD_REACTORS
330
2A
102
}
330
2A
100
AcDbVisualStyle
  2
ColorChange
 70
    16
177
     2
291
     1
 71
     2
176
     1
 72
     2
176
     1
 73
     3
176
     1
 90
        0
176
     1
 40
-0.6
176
     1
 41
-30.0
176
     1
 62
     5
 63
     8
421
  8421504
176
     1
 74
     1
176
     1
 91
        4
176
     1
 64
     7
176
     1
 65
   257
176
     1
 75
     1
176
     1
175
     1
176
     1
 42
1.0
176
     1
 92
        8
176
     1
 66
     8
424
  8421504
176
     1
 43
1.0
176
     1
 76
     1
176
     1
 77
     6
176
     1
 78
     2
176
     1
 67
     7
176
     1
 79
     5
176
     1
170
     0
176
     1
171
     0
176
     1
290
     0
176
     1
 93
        1
176
     1
 44
0.0
176
     1
173
     0
176
     1
  0
VISUALSTYLE
  5
34
102
{ACAD_REACTORS
330
2A
102
}
330
2A
100
AcDbVisualStyle
  2
Conceptual
 70
     9
177
     2
291
     0
 71
     3
176
     1
 72
     2
176
     1
 73
     0
176
     1
 90
        0
176
     1
 40
-0.6
176
     1
 41
-30.0
176
     1
 62
     5
 63
     7
421
 16777215
176
     1
 74
     2
176
     1
 91
        2
176
     1
 64
     7
176
     1
 65
   257
176
     1
 75
     1
176
     1
175
     1
176
     1
 42
40.0
176
     1
 92
        8
176
     1
 66
     7
176
     1
 43
1.0
176
     1
 76
     1
176
     1
 77
     6
176
     1
 78
     2
176
     1
 67
     7
176
     1
 79
     3
176
     1
170
     0
176
     1
171
     0
176
     1
290
     0
176
     1
 93
        1
176
     1
 44
0.0
176
     1
173
     0
176
     1
  0
VISUALSTYLE
  5
35
102
{ACAD_REACTORS
330
2A
102
}
330
2A
100
AcDbVisualStyle
  2
Dim
 70
    11
177
     2
291
     1
 71
     2
176
     1
 72
     2
176
     1
 73
     0
176
     1
 90
        0
176
     1
 40
-0.6
176
     1
 41
-30.0
176
     1
 62
     5
 63
     7
421
 16777215
176
     1
 74
     1
176
     1
 91
        4
176
     1
 64
     7
176
     1
 65
   257
176
     1
 75
     1
176
     1
175
     1
176
     1
 42
1.0
176
     1
 92
        8
176
     1
 66
     7
176
     1
 43
1.0
176
     1
 76
     1
176
     1
 77
     6
176
     1
 78
     2
176
     1
 67
     7
176
     1
 79
     5
176
     1
170
     0
176
     1
171
     0
176
     1
290
     0
176
     1
 93
        1
176
     1
 44
-50.0
176
     1
173
     0
176
     1
  0
VISUALSTYLE
  5
39
102
{ACAD_REACTORS
330
2A
102
}
330
2A
100
AcDbVisualStyle
  2
Facepattern
 70
    15
177
     2
291
     1
 71
     2
176
     1
 72
     2
176
     1
 73
     0
176
     1
 90
        0
176
     1
 40
-0.6
176
     1
 41
-30.0
176
     1
 62
     5
 63
     7
421
 16777215
176
     1
 74
     1
176
     1
 91
        4
176
     1
 64
     7
176
     1
 65
   257
176
     1
 75
     1
176
     1
175
     1
176
     1
 42
1.0
176
     1
 92
        8
176
     1
 66
     7
176
     1
 43
1.0
176
     1
 76
     1
176
     1
 77
     6
176
     1
 78
     2
176
     1
 67
     7
176
     1
 79
     5
176
     1
170
     0
176
     1
171
     0
176
     1
290
     0
176
     1
 93
        1
176
     1
 44
0.0
176
     1
173
     0
176
     1
  0
VISUALSTYLE
  5
2B
102
{ACAD_REACTORS
330
2A
102
}
330
2A
100
AcDbVisualStyle
  2
Flat
 70
     0
177
     2
291
     1
 71
     2
176
     1
 72
     1
176
     1
 73
     1
176
     1
 90
        2
176
     1
 40
-0.6
176
     1
 41
30.0
176
     1
 62
     5
 63
     7
421
 16777215
176
     1
 74
     0
176
     1
 91
        4
176
     1
 64
     7
176
     1
 65
   257
176
     1
 75
     1
176
     1
175
     1
176
     1
 42
1.0
176
     1
 92
        8
176
     1
 66
     7
176
     1
 43
1.0
176
     1
 76
     1
176
     1
 77
     6
176
     1
 78
     2
176
     1
 67
     7
176
     1
 79
     5
176
     1
170
     0
176
     1
171
     0
176
     1
290
     0
176
     1
 93
       13
176
     1
 44
0.0
176
     1
173
     0
176
     1
  0
VISUALSTYLE
  5
2C
102
{ACAD_REACTORS
330
2A
102
}
330
2A
100
AcDbVisualStyle
  2
FlatWithEdges
 70
     1
177
     2
291
     1
 71
     2
176
     1
 72
     1
176
     1
 73
     1
176
     1
 90
        2
176
     1
 40
-0.6
176
     1
 41
30.0
176
     1
 62
     5
 63
     7
421
 16777215
176
     1
 74
     1
176
     1
 91
        4
176
     1
 64
     7
176
     1
 65
   257
176
     1
 75
     1
176
     1
175
     1
176
     1
 42
1.0
176
     1
 92
        0
176
     1
 66
   257
176
     1
 43
1.0
176
     1
 76
     1
176
     1
 77
     6
176
     1
 78
     2
176
     1
 67
     7
176
     1
 79
     5
176
     1
170
     0
176
     1
171
     0
176
     1
290
     0
176
     1
 93
       13
176
     1
 44
0.0
176
     1
173
     0
176
     1
  0
VISUALSTYLE
  5
2D
102
{ACAD_REACTORS
330
2A
102
}
330
2A
100
AcDbVisualStyle
  2
Gouraud
 70
     2
177
     2
291
     1
 71
     2
176
     1
 72
     2
176
     1
 73
     1
176
     1
 90
        2
176
     1
 40
-0.6
176
     1
 41
30.0
176
     1
 62
     5
 63
     7
421
 16777215
176
     1
 74
     0
176
     1
 91
        4
176
     1
 64
     7
176
     1
 65
   257
176
     1
 75
     1
176
     1
175
     1
176
     1
 42
1.0
176
     1
 92
        0
176
     1
 66
     7
176
     1
 43
1.0
176
     1
 76
     1
176
     1
 77
     6
176
     1
 78
     2
176
     1
 67
     7
176
     1
 79
     5
176
     1
170
     0
176
     1
171
     0
176
     1
290
     0
176
     1
 93
       13
176
     1
 44
0.0
176
     1
173
     0
176
     1
  0
VISUALSTYLE
  5
2E
102
{ACAD_REACTORS
330
2A
102
}
330
2A
100
AcDbVisualStyle
  2
GouraudWithEdges
 70
     3
177
     2
291
     1
 71
     2
176
     1
 72
     2
176
     1
 73
     1
176
     1
 90
        2
176
     1
 40
-0.6
176
     1
 41
30.0
176
     1
 62
     5
 63
     7
421
 16777215
176
     1
 74
     1
176
     1
 91
        4
176
     1
 64
     7
176
     1
 65
   257
176
     1
 75
     1
176
     1
175
     1
176
     1
 42
1.0
176
     1
 92
        0
176
     1
 66
   257
176
     1
 43
1.0
176
     1
 76
     1
176
     1
 77
     6
176
     1
 78
     2
176
     1
 67
     7
176
     1
 79
     5
176
     1
170
     0
176
     1
171
     0
176
     1
290
     0
176
     1
 93
       13
176
     1
 44
0.0
176
     1
173
     0
176
     1
  0
VISUALSTYLE
  5
38
102
{ACAD_REACTORS
330
2A
102
}
330
2A
100
AcDbVisualStyle
  2
Linepattern
 70
    14
177
     2
291
     1
 71
     2
176
     1
 72
     2
176
     1
 73
     0
176
     1
 90
        0
176
     1
 40
-0.6
176
     1
 41
-30.0
176
     1
 62
     5
 63
     7
421
 16777215
176
     1
 74
     1
176
     1
 91
        4
176
     1
 64
     7
176
     1
 65
   257
176
     1
 75
     7
176
     1
175
     7
176
     1
 42
1.0
176
     1
 92
        8
176
     1
 66
     7
176
     1
 43
1.0
176
     1
 76
     1
176
     1
 77
     6
176
     1
 78
     2
176
     1
 67
     7
176
     1
 79
     5
176
     1
170
     0
176
     1
171
     0
176
     1
290
     0
176
     1
 93
        1
176
     1
 44
0.0
176
     1
173
     0
176
     1
  0
VISUALSTYLE
  5
33
102
{ACAD_REACTORS
330
2A
102
}
330
2A
100
AcDbVisualStyle
  2
Realistic
 70
     8
177
     2
291
     0
 71
     2
176
     1
 72
     2
176
     1
 73
     0
176
     1
 90
        0
176
     1
 40
-0.6
176
     1
 41
-30.0
176
     1
 62
     5
 63
     7
421
 16777215
176
     1
 74
     1
176
     1
 91
        0
176
     1
 64
     7
176
     1
 65
   257
176
     1
 75
     1
176
     1
175
     1
176
     1
 42
1.0
176
     1
 92
        8
176
     1
 66
     8
424
  7895160
176
     1
 43
1.0
176
     1
 76
     1
176
     1
 77
     6
176
     1
 78
     2
176
     1
 67
     7
176
     1
 79
     5
176
     1
170
     0
176
     1
171
     0
176
     1
290
     0
176
     1
 93
       13
176
     1
 44
0.0
176
     1
173
     0
176
     1
  0
VISUALSTYLE
  5
37
102
{ACAD_REACTORS
330
2A
102
}
330
2A
100
AcDbVisualStyle
  2
Thicken
 70
    13
177
     2
291
     1
 71
     2
176
     1
 72
     2
176
     1
 73
     0
176
     1
 90
        0
176
     1
 40
-0.6
176
     1
 41
-30.0
176
     1
 62
     5
 63
     7
421
 16777215
176
     1
 74
     1
176
     1
 91
        4
176
     1
 64
     7
176
     1
 65
   257
176
     1
 75
     1
176
     1
175
     1
176
     1
 42
1.0
176
     1
 92
       12
176
     1
 66
     7
176
     1
 43
1.0
176
     1
 76
     1
176
     1
 77
     6
176
     1
 78
     2
176
     1
 67
     7
176
     1
 79
     5
176
     1
170
     0
176
     1
171
     0
176
     1
290
     0
176
     1
 93
        1
176
     1
 44
0.0
176
     1
173
     0
176
     1
  0
ENDSEC
  0
EOF
